  0
SECTION
  2
HEADER
  9
$ACADVER
  1
AC1009
  9
$DWGCODEPAGE
  3
ansi_1252
  9
$INSBASE
 10
0.0
 20
0.0
 30
0.0
  9
$EXTMIN
 10
0.0
 20
0.0
 30
0.0
  9
$EXTMAX
 10
1189.0
 20
841.0
 30
0.0
  9
$LIMMIN
 10
0.0
 20
0.0
  9
$LIMMAX
 10
1189.0
 20
841.0
  9
$ORTHOMODE
 70
     0
  9
$REGENMODE
 70
     1
  9
$FILLMODE
 70
     1
  9
$QTEXTMODE
 70
     0
  9
$MIRRTEXT
 70
     1
  9
$DRAGMODE
 70
     2
  9
$LTSCALE
 40
1.0
  9
$OSMODE
 70
    37
  9
$ATTMODE
 70
     1
  9
$TEXTSIZE
 40
3.5
  9
$TRACEWID
 40
1.0
  9
$TEXTSTYLE
  7
STANDARD
  9
$CLAYER
  8
0
  9
$CELTYPE
  6
BYLAYER
  9
$CECOLOR
 62
   256
  9
$DIMSCALE
 40
1.0
  9
$DIMASZ
 40
3.0
  9
$DIMEXO
 40
1.0
  9
$DIMDLI
 40
3.75
  9
$DIMRND
 40
0.0
  9
$DIMDLE
 40
0.0
  9
$DIMEXE
 40
1.0
  9
$DIMTP
 40
0.0
  9
$DIMTM
 40
0.0
  9
$DIMTXT
 40
3.0
  9
$DIMCEN
 40
2.5
  9
$DIMTSZ
 40
0.0
  9
$DIMTOL
 70
     0
  9
$DIMLIM
 70
     0
  9
$DIMTIH
 70
     1
  9
$DIMTOH
 70
     1
  9
$DIMSE1
 70
     0
  9
$DIMSE2
 70
     0
  9
$DIMTAD
 70
     1
  9
$DIMZIN
 70
     0
  9
$DIMBLK
  1

  9
$DIMASO
 70
     1
  9
$DIMSHO
 70
     1
  9
$DIMPOST
  1

  9
$DIMAPOST
  1

  9
$DIMALT
 70
     0
  9
$DIMALTD
 70
     3
  9
$DIMALTF
 40
0.0393700787
  9
$DIMLFAC
 40
1.0
  9
$DIMTOFL
 70
     1
  9
$DIMTVP
 40
0.0
  9
$DIMTIX
 70
     0
  9
$DIMSOXD
 70
     0
  9
$DIMSAH
 70
     0
  9
$DIMBLK1
  1

  9
$DIMBLK2
  1

  9
$DIMSTYLE
  2
ISO-25
  9
$DIMCLRD
 70
     0
  9
$DIMCLRE
 70
     0
  9
$DIMCLRT
 70
     0
  9
$DIMTFAC
 40
1.0
  9
$DIMGAP
 40
1.524
  9
$LUNITS
 70
     2
  9
$LUPREC
 70
     2
  9
$SKETCHINC
 40
1.0
  9
$FILLETRAD
 40
10.0
  9
$AUNITS
 70
     0
  9
$AUPREC
 70
     2
  9
$MENU
  1
.
  9
$ELEVATION
 40
0.0
  9
$PELEVATION
 40
0.0
  9
$THICKNESS
 40
0.0
  9
$LIMCHECK
 70
     0
  9
$CHAMFERA
 40
10.0
  9
$CHAMFERB
 40
10.0
  9
$SKPOLY
 70
     0
  9
$TDCREATE
 40
2455694.374078044
  9
$TDUPDATE
 40
2455694.374078055
  9
$TDINDWG
 40
0.0000000116
  9
$TDUSRTIMER
 40
0.0000000116
  9
$USRTIMER
 70
     1
  9
$ANGBASE
 50
0.0
  9
$ANGDIR
 70
     0
  9
$PDMODE
 70
     0
  9
$PDSIZE
 40
-1.0
  9
$PLINEWID
 40
0.0
  9
$COORDS
 70
     1
  9
$SPLFRAME
 70
     0
  9
$SPLINETYPE
 70
     6
  9
$SPLINESEGS
 70
     8
  9
$ATTDIA
 70
     0
  9
$ATTREQ
 70
     1
  9
$HANDLING
 70
     1
  9
$HANDSEED
  5
ACB
  9
$SURFTAB1
 70
     6
  9
$SURFTAB2
 70
     6
  9
$SURFTYPE
 70
     6
  9
$SURFU
 70
     6
  9
$SURFV
 70
     6
  9
$UCSNAME
  2

  9
$UCSORG
 10
0.0
 20
0.0
 30
0.0
  9
$UCSXDIR
 10
1.0
 20
0.0
 30
0.0
  9
$UCSYDIR
 10
0.0
 20
1.0
 30
0.0
  9
$PUCSNAME
  2

  9
$PUCSORG
 10
0.0
 20
0.0
 30
0.0
  9
$PUCSXDIR
 10
1.0
 20
0.0
 30
0.0
  9
$PUCSYDIR
 10
0.0
 20
1.0
 30
0.0
  9
$USERI1
 70
     0
  9
$USERI2
 70
     0
  9
$USERI3
 70
     0
  9
$USERI4
 70
     0
  9
$USERI5
 70
     0
  9
$USERR1
 40
0.0
  9
$USERR2
 40
0.0
  9
$USERR3
 40
0.0
  9
$USERR4
 40
0.0
  9
$USERR5
 40
0.0
  9
$WORLDVIEW
 70
     1
  9
$SHADEDGE
 70
     3
  9
$SHADEDIF
 70
    70
  9
$TILEMODE
 70
     1
  9
$MAXACTVP
 70
    64
  9
$PLIMCHECK
 70
     0
  9
$PEXTMIN
 10
1.0000000000E+20
 20
1.0000000000E+20
 30
1.0000000000E+20
  9
$PEXTMAX
 10
-1.0000000000E+20
 20
-1.0000000000E+20
 30
-1.0000000000E+20
  9
$PLIMMIN
 10
0.0
 20
0.0
  9
$PLIMMAX
 10
420.0
 20
297.0
  9
$UNITMODE
 70
     0
  9
$VISRETAIN
 70
     1
  9
$PLINEGEN
 70
     0
  9
$PSLTSCALE
 70
     1
  0
ENDSEC
  0
SECTION
  2
TABLES
  0
TABLE
  2
VPORT
 70
     1
  0
VPORT
  2
*ACTIVE
 70
     0
 10
0.0
 20
0.0
 11
1.0
 21
1.0
 12
594.5
 22
420.5
 13
0.0
 23
0.0
 14
10.0
 24
10.0
 15
10.0
 25
10.0
 16
0.0
 26
0.0
 36
1.0
 17
0.0
 27
0.0
 37
0.0
 40
841.0
 41
1.4137931034
 42
50.0
 43
0.0
 44
0.0
 50
0.0
 51
0.0
 71
     0
 72
  2000
 73
     1
 74
     3
 75
     0
 76
     0
 77
     0
 78
     0
  0
ENDTAB
  0
TABLE
  2
LTYPE
 70
     6
  0
LTYPE
  2
CONTINUOUS
 70
     0
  3
Solid line
 72
    65
 73
     0
 40
0.0
  0
LTYPE
  2
HIDDEN
 70
     0
  3
Hidden __ __ __ __ __ __ __ __ __ __ __ __ __ __
 72
    65
 73
     2
 40
1.905
 49
1.27
 49
-0.635
  0
LTYPE
  2
PHANTOM
 70
     0
  3
Phantom ______  __  __  ______  __  __  ______
 72
    65
 73
     6
 40
12.7
 49
6.35
 49
-1.27
 49
1.27
 49
-1.27
 49
1.27
 49
-1.27
  0
LTYPE
  2
CENTER
 70
     0
  3
Center ____ _ ____ _ ____ _ ____ _ ____ _ ____
 72
    65
 73
     4
 40
10.16
 49
6.35
 49
-1.27
 49
1.27
 49
-1.27
  0
LTYPE
  2
CENTERX2
 70
     0
  3
Center (2x) ________  __  ________  __  _____
 72
    65
 73
     4
 40
20.32
 49
12.7
 49
-2.54
 49
2.54
 49
-2.54
  0
LTYPE
  2
DOT2
 70
     0
  3
Dot (.5x) ........................................
 72
    65
 73
     2
 40
0.635
 49
0.0
 49
-0.635
  0
ENDTAB
  0
TABLE
  2
LAYER
 70
     2
  0
LAYER
  2
0
 70
     0
 62
     7
  6
CONTINUOUS
  0
LAYER
  2
FORMAT
 70
     0
 62
     7
  6
CONTINUOUS
  0
ENDTAB
  0
TABLE
  2
STYLE
 70
     1
  0
STYLE
  2
STANDARD
 70
     0
 40
0.0
 41
1.0
 50
0.0
 71
     0
 42
2.5
  3
txt
  4

  0
ENDTAB
  0
TABLE
  2
VIEW
 70
     0
  0
ENDTAB
  0
TABLE
  2
UCS
 70
     0
  0
ENDTAB
  0
TABLE
  2
APPID
 70
     1
  0
APPID
  2
ACAD
 70
     0
  0
ENDTAB
  0
TABLE
  2
DIMSTYLE
 70
     1
  0
DIMSTYLE
  2
ISO-25
 70
     0
  3

  4

  5

  6

  7

 40
1.0
 41
2.5
 42
0.625
 43
3.75
 44
1.25
 45
0.0
 46
0.0
 47
0.0
 48
0.0
140
2.5
141
2.5
142
0.0
143
0.0393700787
144
1.0
145
0.0
146
1.0
147
0.625
 71
     0
 72
     0
 73
     0
 74
     0
 75
     0
 76
     0
 77
     1
 78
     8
170
     0
171
     3
172
     1
173
     0
174
     0
175
     0
176
     0
177
     0
178
     0
  0
ENDTAB
  0
ENDSEC
  0
SECTION
  2
BLOCKS
  0
BLOCK
  8
0
  2
$MODEL_SPACE
 70
     0
 10
0.0
 20
0.0
 30
0.0
  3
$MODEL_SPACE
  1

  0
ENDBLK
  5
21
  8
0
  0
BLOCK
 67
     1
  8
0
  2
$PAPER_SPACE
 70
     0
 10
0.0
 20
0.0
 30
0.0
  3
$PAPER_SPACE
  1

  0
ENDBLK
  5
1D
 67
     1
  8
0
  0
BLOCK
  8
0
  2
SW_NOTE_0
 70
     0
 10
0.0
 20
0.0
 30
0.0
  3
SW_NOTE_0
  1

  0
TEXT
  5
55
  8
0
  6
CONTINUOUS
 62
     0
 10
0.0
 20
0.7065201238
 30
0.0
 40
2.0
  1
Gezeichnet von
 41
0.7
 11
0.0
 21
0.0
 31
0.0
 73
     1
  0
TEXT
  5
56
  8
0
  6
CONTINUOUS
 62
     0
 10
0.0
 20
-5.6168498047
 30
0.0
 40
2.5
  1
Christian Forrer
 41
0.7
 11
0.0
 21
-6.4999999595
 31
0.0
 73
     1
  0
TEXT
  5
57
  8
0
  6
CONTINUOUS
 62
     0
 10
0.0
 20
-9.1168499127
 30
0.0
 40
2.5
  1
www.ch-forrer.ch
 41
0.7
 11
0.0
 21
-10.0000000675
 31
0.0
 73
     1
  0
ENDBLK
  5
54
  8
0
  0
BLOCK
  8
0
  2
SW_CENTERMARKSYMBOL_0
 70
     0
 10
0.0
 20
0.0
 30
0.0
  3
SW_CENTERMARKSYMBOL_0
  1

  0
LINE
  5
120
  8
0
  6
CONTINUOUS
 62
     0
 10
0.0
 20
0.0
 30
0.0
 11
-2.5
 21
0.0
 31
0.0
  0
LINE
  5
121
  8
0
  6
CONTINUOUS
 62
     0
 10
0.0
 20
0.0
 30
0.0
 11
0.0
 21
-2.5
 31
0.0
  0
LINE
  5
122
  8
0
  6
CONTINUOUS
 62
     0
 10
0.0
 20
0.0
 30
0.0
 11
2.5
 21
0.0
 31
0.0
  0
LINE
  5
123
  8
0
  6
CONTINUOUS
 62
     0
 10
0.0
 20
0.0
 30
0.0
 11
0.0
 21
2.5
 31
0.0
  0
ENDBLK
  5
11F
  8
0
  0
BLOCK
  8
0
  2
SW_NOTE_1
 70
     0
 10
0.0
 20
0.0
 30
0.0
  3
SW_NOTE_1
  1

  0
TEXT
  5
1D6
  8
0
  6
CONTINUOUS
 62
     0
 10
0.0
 20
1.2364102167
 30
0.0
 40
3.5
  1
SCHNITTDARSTELLUNG A-A 
 41
0.6695652174
 11
0.0
 21
0.0
 31
0.0
 73
     1
  0
TEXT
  5
1D7
  8
0
  6
CONTINUOUS
 62
     0
 10
14.585763216
 20
-3.2892843137
 30
0.0
 40
3.5
  1
MAßSTAB 1 : 2
 41
0.6192307692
 11
14.585763216
 21
-4.5256945305
 31
0.0
 73
     1
  0
ENDBLK
  5
1D5
  8
0
  0
BLOCK
  8
0
  2
SW_CENTERMARKSYMBOL_1
 70
     0
 10
0.0
 20
0.0
 30
0.0
  3
SW_CENTERMARKSYMBOL_1
  1

  0
LINE
  5
1DC
  8
0
  6
CONTINUOUS
 62
     0
 10
0.0
 20
0.0
 30
0.0
 11
0.0
 21
1.25
 31
0.0
  0
LINE
  5
1DD
  8
0
  6
CONTINUOUS
 62
     0
 10
0.0
 20
0.0
 30
0.0
 11
-1.25
 21
0.0
 31
0.0
  0
LINE
  5
1DE
  8
0
  6
CONTINUOUS
 62
     0
 10
0.0
 20
0.0
 30
0.0
 11
0.0
 21
-1.25
 31
0.0
  0
LINE
  5
1DF
  8
0
  6
CONTINUOUS
 62
     0
 10
0.0
 20
0.0
 30
0.0
 11
1.25
 21
0.0
 31
0.0
  0
ENDBLK
  5
1DB
  8
0
  0
BLOCK
  8
0
  2
SW_CENTERMARKSYMBOL_2
 70
     0
 10
0.0
 20
0.0
 30
0.0
  3
SW_CENTERMARKSYMBOL_2
  1

  0
LINE
  5
1E4
  8
0
  6
CONTINUOUS
 62
     0
 10
0.0
 20
0.0
 30
0.0
 11
0.0
 21
1.25
 31
0.0
  0
LINE
  5
1E5
  8
0
  6
CONTINUOUS
 62
     0
 10
0.0
 20
0.0
 30
0.0
 11
-1.25
 21
0.0
 31
0.0
  0
LINE
  5
1E6
  8
0
  6
CONTINUOUS
 62
     0
 10
0.0
 20
0.0
 30
0.0
 11
0.0
 21
-1.25
 31
0.0
  0
LINE
  5
1E7
  8
0
  6
CONTINUOUS
 62
     0
 10
0.0
 20
0.0
 30
0.0
 11
1.25
 21
0.0
 31
0.0
  0
ENDBLK
  5
1E3
  8
0
  0
BLOCK
  8
0
  2
SW_CENTERMARKSYMBOL_3
 70
     0
 10
0.0
 20
0.0
 30
0.0
  3
SW_CENTERMARKSYMBOL_3
  1

  0
LINE
  5
1EC
  8
0
  6
CONTINUOUS
 62
     0
 10
0.0
 20
0.0
 30
0.0
 11
0.0
 21
1.25
 31
0.0
  0
LINE
  5
1ED
  8
0
  6
CONTINUOUS
 62
     0
 10
0.0
 20
0.0
 30
0.0
 11
-1.25
 21
0.0
 31
0.0
  0
LINE
  5
1EE
  8
0
  6
CONTINUOUS
 62
     0
 10
0.0
 20
0.0
 30
0.0
 11
0.0
 21
-1.25
 31
0.0
  0
LINE
  5
1EF
  8
0
  6
CONTINUOUS
 62
     0
 10
0.0
 20
0.0
 30
0.0
 11
1.25
 21
0.0
 31
0.0
  0
ENDBLK
  5
1EB
  8
0
  0
BLOCK
  8
0
  2
SW_NOTE_2
 70
     0
 10
0.0
 20
0.0
 30
0.0
  3
SW_NOTE_2
  1

  0
TEXT
  5
24D
  8
0
  6
CONTINUOUS
 62
     0
 10
0.0
 20
1.2364102167
 30
0.0
 40
3.5
  1
SCHNITTDARSTELLUNG B-B 
 41
0.6695652174
 11
0.0
 21
0.0
 31
0.0
 73
     1
  0
TEXT
  5
24E
  8
0
  6
CONTINUOUS
 62
     0
 10
13.8128474355
 20
-3.2892843137
 30
0.0
 40
3.5
  1
MAßSTAB 1 : 2
 41
0.6192307692
 11
13.8128474355
 21
-4.5256945305
 31
0.0
 73
     1
  0
ENDBLK
  5
24C
  8
0
  0
BLOCK
  8
0
  2
SW_CENTERMARKSYMBOL_4
 70
     0
 10
0.0
 20
0.0
 30
0.0
  3
SW_CENTERMARKSYMBOL_4
  1

  0
LINE
  5
253
  8
0
  6
CONTINUOUS
 62
     0
 10
0.0
 20
0.0
 30
0.0
 11
0.0
 21
1.25
 31
0.0
  0
LINE
  5
254
  8
0
  6
CONTINUOUS
 62
     0
 10
0.0
 20
0.0
 30
0.0
 11
-1.25
 21
0.0
 31
0.0
  0
LINE
  5
255
  8
0
  6
CONTINUOUS
 62
     0
 10
0.0
 20
0.0
 30
0.0
 11
0.0
 21
-1.25
 31
0.0
  0
LINE
  5
256
  8
0
  6
CONTINUOUS
 62
     0
 10
0.0
 20
0.0
 30
0.0
 11
1.25
 21
0.0
 31
0.0
  0
ENDBLK
  5
252
  8
0
  0
BLOCK
  8
0
  2
SW_CENTERMARKSYMBOL_5
 70
     0
 10
0.0
 20
0.0
 30
0.0
  3
SW_CENTERMARKSYMBOL_5
  1

  0
LINE
  5
25B
  8
0
  6
CONTINUOUS
 62
     0
 10
0.0
 20
0.0
 30
0.0
 11
0.0
 21
1.25
 31
0.0
  0
LINE
  5
25C
  8
0
  6
CONTINUOUS
 62
     0
 10
0.0
 20
0.0
 30
0.0
 11
-1.25
 21
0.0
 31
0.0
  0
LINE
  5
25D
  8
0
  6
CONTINUOUS
 62
     0
 10
0.0
 20
0.0
 30
0.0
 11
0.0
 21
-1.25
 31
0.0
  0
LINE
  5
25E
  8
0
  6
CONTINUOUS
 62
     0
 10
0.0
 20
0.0
 30
0.0
 11
1.25
 21
0.0
 31
0.0
  0
ENDBLK
  5
25A
  8
0
  0
BLOCK
  8
0
  2
SW_CENTERMARKSYMBOL_6
 70
     0
 10
0.0
 20
0.0
 30
0.0
  3
SW_CENTERMARKSYMBOL_6
  1

  0
LINE
  5
263
  8
0
  6
CONTINUOUS
 62
     0
 10
0.0
 20
0.0
 30
0.0
 11
0.0
 21
1.25
 31
0.0
  0
LINE
  5
264
  8
0
  6
CONTINUOUS
 62
     0
 10
0.0
 20
0.0
 30
0.0
 11
-1.25
 21
0.0
 31
0.0
  0
LINE
  5
265
  8
0
  6
CONTINUOUS
 62
     0
 10
0.0
 20
0.0
 30
0.0
 11
0.0
 21
-1.25
 31
0.0
  0
LINE
  5
266
  8
0
  6
CONTINUOUS
 62
     0
 10
0.0
 20
0.0
 30
0.0
 11
1.25
 21
0.0
 31
0.0
  0
ENDBLK
  5
262
  8
0
  0
BLOCK
  8
0
  2
SW_NOTE_3
 70
     0
 10
0.0
 20
0.0
 30
0.0
  3
SW_NOTE_3
  1

  0
TEXT
  5
2C3
  8
0
  6
CONTINUOUS
 62
     0
 10
0.0
 20
1.2364102167
 30
0.0
 40
3.5
  1
SCHNITTDARSTELLUNG C-C 
 41
0.6695652174
 11
0.0
 21
0.0
 31
0.0
 73
     1
  0
TEXT
  5
2C4
  8
0
  6
CONTINUOUS
 62
     0
 10
14.9260424078
 20
-3.2892843137
 30
0.0
 40
3.5
  1
MAßSTAB 1 : 2
 41
0.6192307692
 11
14.9260424078
 21
-4.5256945305
 31
0.0
 73
     1
  0
ENDBLK
  5
2C2
  8
0
  0
BLOCK
  8
0
  2
SW_CENTERMARKSYMBOL_7
 70
     0
 10
0.0
 20
0.0
 30
0.0
  3
SW_CENTERMARKSYMBOL_7
  1

  0
LINE
  5
2C9
  8
0
  6
CONTINUOUS
 62
     0
 10
0.0
 20
0.0
 30
0.0
 11
0.0
 21
1.25
 31
0.0
  0
LINE
  5
2CA
  8
0
  6
CONTINUOUS
 62
     0
 10
0.0
 20
0.0
 30
0.0
 11
-1.25
 21
0.0
 31
0.0
  0
LINE
  5
2CB
  8
0
  6
CONTINUOUS
 62
     0
 10
0.0
 20
0.0
 30
0.0
 11
0.0
 21
-1.25
 31
0.0
  0
LINE
  5
2CC
  8
0
  6
CONTINUOUS
 62
     0
 10
0.0
 20
0.0
 30
0.0
 11
1.25
 21
0.0
 31
0.0
  0
ENDBLK
  5
2C8
  8
0
  0
BLOCK
  8
0
  2
SW_CENTERMARKSYMBOL_8
 70
     0
 10
0.0
 20
0.0
 30
0.0
  3
SW_CENTERMARKSYMBOL_8
  1

  0
LINE
  5
2D1
  8
0
  6
CONTINUOUS
 62
     0
 10
0.0
 20
0.0
 30
0.0
 11
0.0
 21
1.25
 31
0.0
  0
LINE
  5
2D2
  8
0
  6
CONTINUOUS
 62
     0
 10
0.0
 20
0.0
 30
0.0
 11
-1.25
 21
0.0
 31
0.0
  0
LINE
  5
2D3
  8
0
  6
CONTINUOUS
 62
     0
 10
0.0
 20
0.0
 30
0.0
 11
0.0
 21
-1.25
 31
0.0
  0
LINE
  5
2D4
  8
0
  6
CONTINUOUS
 62
     0
 10
0.0
 20
0.0
 30
0.0
 11
1.25
 21
0.0
 31
0.0
  0
ENDBLK
  5
2D0
  8
0
  0
BLOCK
  8
0
  2
SW_CENTERMARKSYMBOL_9
 70
     0
 10
0.0
 20
0.0
 30
0.0
  3
SW_CENTERMARKSYMBOL_9
  1

  0
LINE
  5
2D9
  8
0
  6
CONTINUOUS
 62
     0
 10
0.0
 20
0.0
 30
0.0
 11
0.0
 21
1.25
 31
0.0
  0
LINE
  5
2DA
  8
0
  6
CONTINUOUS
 62
     0
 10
0.0
 20
0.0
 30
0.0
 11
-1.25
 21
0.0
 31
0.0
  0
LINE
  5
2DB
  8
0
  6
CONTINUOUS
 62
     0
 10
0.0
 20
0.0
 30
0.0
 11
0.0
 21
-1.25
 31
0.0
  0
LINE
  5
2DC
  8
0
  6
CONTINUOUS
 62
     0
 10
0.0
 20
0.0
 30
0.0
 11
1.25
 21
0.0
 31
0.0
  0
ENDBLK
  5
2D8
  8
0
  0
BLOCK
  8
0
  2
SW_NOTE_4
 70
     0
 10
0.0
 20
0.0
 30
0.0
  3
SW_NOTE_4
  1

  0
TEXT
  5
32A
  8
0
  6
CONTINUOUS
 62
     0
 10
0.0
 20
1.2364102167
 30
0.0
 40
3.5
  1
SCHNITTDARSTELLUNG D-D 
 41
0.6695652174
 11
0.0
 21
0.0
 31
0.0
 73
     1
  0
TEXT
  5
32B
  8
0
  6
CONTINUOUS
 62
     0
 10
14.6052092314
 20
-3.2892843137
 30
0.0
 40
3.5
  1
MAßSTAB 1 : 2
 41
0.6192307692
 11
14.6052092314
 21
-4.5256945305
 31
0.0
 73
     1
  0
ENDBLK
  5
329
  8
0
  0
BLOCK
  8
0
  2
SW_CENTERMARKSYMBOL_10
 70
     0
 10
0.0
 20
0.0
 30
0.0
  3
SW_CENTERMARKSYMBOL_10
  1

  0
LINE
  5
330
  8
0
  6
CONTINUOUS
 62
     0
 10
0.0
 20
0.0
 30
0.0
 11
0.0
 21
1.25
 31
0.0
  0
LINE
  5
331
  8
0
  6
CONTINUOUS
 62
     0
 10
0.0
 20
0.0
 30
0.0
 11
-1.25
 21
0.0
 31
0.0
  0
LINE
  5
332
  8
0
  6
CONTINUOUS
 62
     0
 10
0.0
 20
0.0
 30
0.0
 11
0.0
 21
-1.25
 31
0.0
  0
LINE
  5
333
  8
0
  6
CONTINUOUS
 62
     0
 10
0.0
 20
0.0
 30
0.0
 11
1.25
 21
0.0
 31
0.0
  0
ENDBLK
  5
32F
  8
0
  0
BLOCK
  8
0
  2
SW_NOTE_5
 70
     0
 10
0.0
 20
0.0
 30
0.0
  3
SW_NOTE_5
  1

  0
TEXT
  5
384
  8
0
  6
CONTINUOUS
 62
     0
 10
0.0
 20
1.2364102167
 30
0.0
 40
3.5
  1
SCHNITTDARSTELLUNG E-E 
 41
0.6695652174
 11
0.0
 21
0.0
 31
0.0
 73
     1
  0
TEXT
  5
385
  8
0
  6
CONTINUOUS
 62
     0
 10
13.6378481984
 20
-3.2892843137
 30
0.0
 40
3.5
  1
MAßSTAB 1 : 2
 41
0.6192307692
 11
13.6378481984
 21
-4.5256945305
 31
0.0
 73
     1
  0
ENDBLK
  5
383
  8
0
  0
BLOCK
  8
0
  2
SW_NOTE_6
 70
     0
 10
0.0
 20
0.0
 30
0.0
  3
SW_NOTE_6
  1

  0
TEXT
  5
3C1
  8
0
  6
CONTINUOUS
 62
     0
 10
0.0
 20
1.2364102167
 30
0.0
 40
3.5
  1
SCHNITTDARSTELLUNG F-F 
 41
0.6695652174
 11
0.0
 21
0.0
 31
0.0
 73
     1
  0
TEXT
  5
3C2
  8
0
  6
CONTINUOUS
 62
     0
 10
13.3947916329
 20
-3.2892843137
 30
0.0
 40
3.5
  1
MAßSTAB 1 : 2
 41
0.6192307692
 11
13.3947916329
 21
-4.5256945305
 31
0.0
 73
     1
  0
ENDBLK
  5
3C0
  8
0
  0
BLOCK
  8
0
  2
SW_CENTERMARKSYMBOL_11
 70
     0
 10
0.0
 20
0.0
 30
0.0
  3
SW_CENTERMARKSYMBOL_11
  1

  0
LINE
  5
40F
  8
0
  6
CONTINUOUS
 62
     0
 10
0.0
 20
0.0
 30
0.0
 11
0.0
 21
1.25
 31
0.0
  0
LINE
  5
410
  8
0
  6
CONTINUOUS
 62
     0
 10
0.0
 20
0.0
 30
0.0
 11
-1.25
 21
0.0
 31
0.0
  0
LINE
  5
411
  8
0
  6
CONTINUOUS
 62
     0
 10
0.0
 20
0.0
 30
0.0
 11
0.0
 21
-1.25
 31
0.0
  0
LINE
  5
412
  8
0
  6
CONTINUOUS
 62
     0
 10
0.0
 20
0.0
 30
0.0
 11
1.25
 21
0.0
 31
0.0
  0
ENDBLK
  5
40E
  8
0
  0
BLOCK
  8
0
  2
SW_CENTERMARKSYMBOL_12
 70
     0
 10
0.0
 20
0.0
 30
0.0
  3
SW_CENTERMARKSYMBOL_12
  1

  0
LINE
  5
417
  8
0
  6
CONTINUOUS
 62
     0
 10
0.0
 20
0.0
 30
0.0
 11
0.0
 21
1.25
 31
0.0
  0
LINE
  5
418
  8
0
  6
CONTINUOUS
 62
     0
 10
0.0
 20
0.0
 30
0.0
 11
-1.25
 21
0.0
 31
0.0
  0
LINE
  5
419
  8
0
  6
CONTINUOUS
 62
     0
 10
0.0
 20
0.0
 30
0.0
 11
0.0
 21
-1.25
 31
0.0
  0
LINE
  5
41A
  8
0
  6
CONTINUOUS
 62
     0
 10
0.0
 20
0.0
 30
0.0
 11
1.25
 21
0.0
 31
0.0
  0
ENDBLK
  5
416
  8
0
  0
BLOCK
  8
0
  2
SW_CENTERMARKSYMBOL_13
 70
     0
 10
0.0
 20
0.0
 30
0.0
  3
SW_CENTERMARKSYMBOL_13
  1

  0
LINE
  5
41F
  8
0
  6
CONTINUOUS
 62
     0
 10
0.0
 20
0.0
 30
0.0
 11
0.0
 21
1.25
 31
0.0
  0
LINE
  5
420
  8
0
  6
CONTINUOUS
 62
     0
 10
0.0
 20
0.0
 30
0.0
 11
-1.25
 21
0.0
 31
0.0
  0
LINE
  5
421
  8
0
  6
CONTINUOUS
 62
     0
 10
0.0
 20
0.0
 30
0.0
 11
0.0
 21
-1.25
 31
0.0
  0
LINE
  5
422
  8
0
  6
CONTINUOUS
 62
     0
 10
0.0
 20
0.0
 30
0.0
 11
1.25
 21
0.0
 31
0.0
  0
ENDBLK
  5
41E
  8
0
  0
BLOCK
  8
0
  2
SW_CENTERMARKSYMBOL_14
 70
     0
 10
0.0
 20
0.0
 30
0.0
  3
SW_CENTERMARKSYMBOL_14
  1

  0
LINE
  5
427
  8
0
  6
CONTINUOUS
 62
     0
 10
0.0
 20
0.0
 30
0.0
 11
0.0
 21
1.25
 31
0.0
  0
LINE
  5
428
  8
0
  6
CONTINUOUS
 62
     0
 10
0.0
 20
0.0
 30
0.0
 11
-1.25
 21
0.0
 31
0.0
  0
LINE
  5
429
  8
0
  6
CONTINUOUS
 62
     0
 10
0.0
 20
0.0
 30
0.0
 11
0.0
 21
-1.25
 31
0.0
  0
LINE
  5
42A
  8
0
  6
CONTINUOUS
 62
     0
 10
0.0
 20
0.0
 30
0.0
 11
1.25
 21
0.0
 31
0.0
  0
ENDBLK
  5
426
  8
0
  0
BLOCK
  8
0
  2
SW_CENTERMARKSYMBOL_15
 70
     0
 10
0.0
 20
0.0
 30
0.0
  3
SW_CENTERMARKSYMBOL_15
  1

  0
LINE
  5
42F
  8
0
  6
CONTINUOUS
 62
     0
 10
0.0
 20
0.0
 30
0.0
 11
0.0
 21
1.25
 31
0.0
  0
LINE
  5
430
  8
0
  6
CONTINUOUS
 62
     0
 10
0.0
 20
0.0
 30
0.0
 11
-1.25
 21
0.0
 31
0.0
  0
LINE
  5
431
  8
0
  6
CONTINUOUS
 62
     0
 10
0.0
 20
0.0
 30
0.0
 11
0.0
 21
-1.25
 31
0.0
  0
LINE
  5
432
  8
0
  6
CONTINUOUS
 62
     0
 10
0.0
 20
0.0
 30
0.0
 11
1.25
 21
0.0
 31
0.0
  0
ENDBLK
  5
42E
  8
0
  0
BLOCK
  8
0
  2
SW_CENTERMARKSYMBOL_16
 70
     0
 10
0.0
 20
0.0
 30
0.0
  3
SW_CENTERMARKSYMBOL_16
  1

  0
LINE
  5
437
  8
0
  6
CONTINUOUS
 62
     0
 10
0.0
 20
0.0
 30
0.0
 11
0.0
 21
1.25
 31
0.0
  0
LINE
  5
438
  8
0
  6
CONTINUOUS
 62
     0
 10
0.0
 20
0.0
 30
0.0
 11
-1.25
 21
0.0
 31
0.0
  0
LINE
  5
439
  8
0
  6
CONTINUOUS
 62
     0
 10
0.0
 20
0.0
 30
0.0
 11
0.0
 21
-1.25
 31
0.0
  0
LINE
  5
43A
  8
0
  6
CONTINUOUS
 62
     0
 10
0.0
 20
0.0
 30
0.0
 11
1.25
 21
0.0
 31
0.0
  0
ENDBLK
  5
436
  8
0
  0
BLOCK
  8
0
  2
SW_CENTERMARKSYMBOL_17
 70
     0
 10
0.0
 20
0.0
 30
0.0
  3
SW_CENTERMARKSYMBOL_17
  1

  0
LINE
  5
43F
  8
0
  6
CONTINUOUS
 62
     0
 10
0.0
 20
0.0
 30
0.0
 11
0.0
 21
1.25
 31
0.0
  0
LINE
  5
440
  8
0
  6
CONTINUOUS
 62
     0
 10
0.0
 20
0.0
 30
0.0
 11
-1.25
 21
0.0
 31
0.0
  0
LINE
  5
441
  8
0
  6
CONTINUOUS
 62
     0
 10
0.0
 20
0.0
 30
0.0
 11
0.0
 21
-1.25
 31
0.0
  0
LINE
  5
442
  8
0
  6
CONTINUOUS
 62
     0
 10
0.0
 20
0.0
 30
0.0
 11
1.25
 21
0.0
 31
0.0
  0
ENDBLK
  5
43E
  8
0
  0
BLOCK
  8
0
  2
SW_CENTERMARKSYMBOL_18
 70
     0
 10
0.0
 20
0.0
 30
0.0
  3
SW_CENTERMARKSYMBOL_18
  1

  0
LINE
  5
447
  8
0
  6
CONTINUOUS
 62
     0
 10
0.0
 20
0.0
 30
0.0
 11
0.0
 21
1.25
 31
0.0
  0
LINE
  5
448
  8
0
  6
CONTINUOUS
 62
     0
 10
0.0
 20
0.0
 30
0.0
 11
-1.25
 21
0.0
 31
0.0
  0
LINE
  5
449
  8
0
  6
CONTINUOUS
 62
     0
 10
0.0
 20
0.0
 30
0.0
 11
0.0
 21
-1.25
 31
0.0
  0
LINE
  5
44A
  8
0
  6
CONTINUOUS
 62
     0
 10
0.0
 20
0.0
 30
0.0
 11
1.25
 21
0.0
 31
0.0
  0
ENDBLK
  5
446
  8
0
  0
BLOCK
  8
0
  2
SW_CENTERMARKSYMBOL_19
 70
     0
 10
0.0
 20
0.0
 30
0.0
  3
SW_CENTERMARKSYMBOL_19
  1

  0
LINE
  5
44F
  8
0
  6
CONTINUOUS
 62
     0
 10
0.0
 20
0.0
 30
0.0
 11
0.0
 21
1.25
 31
0.0
  0
LINE
  5
450
  8
0
  6
CONTINUOUS
 62
     0
 10
0.0
 20
0.0
 30
0.0
 11
-1.25
 21
0.0
 31
0.0
  0
LINE
  5
451
  8
0
  6
CONTINUOUS
 62
     0
 10
0.0
 20
0.0
 30
0.0
 11
0.0
 21
-1.25
 31
0.0
  0
LINE
  5
452
  8
0
  6
CONTINUOUS
 62
     0
 10
0.0
 20
0.0
 30
0.0
 11
1.25
 21
0.0
 31
0.0
  0
ENDBLK
  5
44E
  8
0
  0
BLOCK
  8
0
  2
SW_CENTERMARKSYMBOL_20
 70
     0
 10
0.0
 20
0.0
 30
0.0
  3
SW_CENTERMARKSYMBOL_20
  1

  0
LINE
  5
457
  8
0
  6
CONTINUOUS
 62
     0
 10
0.0
 20
0.0
 30
0.0
 11
0.0
 21
1.25
 31
0.0
  0
LINE
  5
458
  8
0
  6
CONTINUOUS
 62
     0
 10
0.0
 20
0.0
 30
0.0
 11
-1.25
 21
0.0
 31
0.0
  0
LINE
  5
459
  8
0
  6
CONTINUOUS
 62
     0
 10
0.0
 20
0.0
 30
0.0
 11
0.0
 21
-1.25
 31
0.0
  0
LINE
  5
45A
  8
0
  6
CONTINUOUS
 62
     0
 10
0.0
 20
0.0
 30
0.0
 11
1.25
 21
0.0
 31
0.0
  0
LINE
  5
45B
  8
0
  6
CONTINUOUS
 62
     0
 10
0.0
 20
2.5
 30
0.0
 11
0.0
 21
12.5
 31
0.0
  0
LINE
  5
45C
  8
0
  6
CONTINUOUS
 62
     0
 10
-2.5
 20
0.0
 30
0.0
 11
-12.5
 21
0.0
 31
0.0
  0
LINE
  5
45D
  8
0
  6
CONTINUOUS
 62
     0
 10
0.0
 20
-2.5
 30
0.0
 11
0.0
 21
-12.5
 31
0.0
  0
LINE
  5
45E
  8
0
  6
CONTINUOUS
 62
     0
 10
2.5
 20
0.0
 30
0.0
 11
12.5
 21
0.0
 31
0.0
  0
ENDBLK
  5
456
  8
0
  0
ENDSEC
  0
SECTION
  2
ENTITIES
  0
LINE
  5
45
  8
0
  6
CONTINUOUS
 62
     7
 10
1049.0
 20
15.0
 30
0.0
 11
1179.0
 21
15.0
 31
0.0
  0
LINE
  5
46
  8
0
  6
CONTINUOUS
 62
     7
 10
1049.0
 20
25.0
 30
0.0
 11
990.1904876344
 21
25.0
 31
0.0
  0
LINE
  5
47
  8
0
  6
CONTINUOUS
 62
     7
 10
1136.352375303
 20
10.0
 30
0.0
 11
1136.352375303
 21
15.0
 31
0.0
  0
LINE
  5
48
  8
0
  6
CONTINUOUS
 62
     7
 10
1049.0
 20
25.0
 30
0.0
 11
1049.0
 21
10.0
 31
0.0
  0
LINE
  5
49
  8
0
  6
CONTINUOUS
 62
     7
 10
1100.1428677464
 20
15.0
 30
0.0
 11
1100.1428677464
 21
10.0
 31
0.0
  0
LINE
  5
4A
  8
0
  6
CONTINUOUS
 62
     7
 10
990.1904876344
 20
25.0
 30
0.0
 11
990.1904876344
 21
10.0
 31
0.0
  0
LINE
  5
4B
  8
0
  6
CONTINUOUS
 62
     7
 10
1049.0
 20
25.0
 30
0.0
 11
1179.0
 21
25.0
 31
0.0
  0
LINE
  5
4C
  8
0
  6
CONTINUOUS
 62
     7
 10
1162.7662256833
 20
10.0
 30
0.0
 11
1162.7662256833
 21
15.0
 31
0.0
  0
LINE
  5
4D
  8
0
  6
CONTINUOUS
 62
     7
 10
1168.6290715343
 20
15.0
 30
0.0
 11
1168.6290715343
 21
25.0
 31
0.0
  0
LINE
  5
4E
  8
0
  6
CONTINUOUS
 62
     7
 10
1179.0
 20
831.0
 30
0.0
 11
10.0
 21
831.0
 31
0.0
  0
LINE
  5
4F
  8
0
  6
CONTINUOUS
 62
     7
 10
10.0
 20
831.0
 30
0.0
 11
10.0
 21
10.0
 31
0.0
  0
LINE
  5
50
  8
0
  6
CONTINUOUS
 62
     7
 10
10.0
 20
10.0
 30
0.0
 11
1179.0
 21
10.0
 31
0.0
  0
LINE
  5
51
  8
0
  6
CONTINUOUS
 62
     7
 10
1179.0
 20
10.0
 30
0.0
 11
1179.0
 21
831.0
 31
0.0
  0
INSERT
  5
58
  8
0
  6
CONTINUOUS
 62
     7
  2
SW_NOTE_0
 10
991.6244680695
 20
20.950519026
 30
0.0
  0
TEXT
  5
59
  8
0
  6
CONTINUOUS
 62
     7
 10
1102.2844994458
 20
11.6338132946
 30
0.0
 40
1.4986
  1
Datum:
 41
0.7
 11
1102.2844994458
 21
11.1044177658
 31
0.0
 73
     1
  0
TEXT
  5
5A
  8
0
  6
CONTINUOUS
 62
     7
 10
1050.5348168828
 20
11.7846064548
 30
0.0
 40
1.5
  1
MATERIAL:
 41
0.7
 11
1050.5348168828
 21
11.2547163619
 31
0.0
 73
     1
  0
TEXT
  5
5B
  8
0
  6
CONTINUOUS
 62
     7
 10
1050.3023586845
 20
22.9571419304
 30
0.0
 40
1.5
  1
Zeichnungsnahme
 41
0.7
 11
1050.3023586845
 21
22.4272518376
 31
0.0
 73
     1
  0
TEXT
  5
5C
  8
0
  6
CONTINUOUS
 62
     7
 10
1142.4900800317
 20
11.7028044826
 30
0.0
 40
1.5
  1
Massstab:1:1
 41
0.7
 11
1142.4900800317
 21
11.1729143897
 31
0.0
 73
     1
  0
TEXT
  5
5D
  8
0
  6
CONTINUOUS
 62
     7
 10
1165.7651885548
 20
11.5813483502
 30
0.0
 40
1.5
  1
Blatt 1 von 1
 41
0.6192307692
 11
1165.7651885548
 21
11.0514582573
 31
0.0
 73
     1
  0
TEXT
  5
5E
  8
0
  6
CONTINUOUS
 62
     7
 10
1170.7239143641
 20
18.8839667911
 30
0.0
 40
3.7041666667
  1
A0
 41
0.7
 11
1170.7239143641
 21
17.5754326451
 31
0.0
 73
     1
  0
TEXT
  5
5F
  8
0
  6
CONTINUOUS
 62
     7
 10
1061.3021848377
 20
11.464765643
 30
0.0
 40
2.5
  1
Balsa mittlere Qualität
 41
0.6695652174
 11
1061.3021848377
 21
10.5816154882
 31
0.0
 73
     1
  0
TEXT
  5
60
  8
0
  6
CONTINUOUS
 62
     7
 10
1049.9879065788
 20
16.906714064
 30
0.0
 40
4.0
  1
Tecnam_DXF-1
 41
0.7
 11
1049.9879065788
 21
15.4936738164
 31
0.0
 73
     1
  0
TEXT
  5
61
  8
0
  6
CONTINUOUS
 62
     7
 10
1115.7638279905
 20
11.0885788178
 30
0.0
 40
2.5
  1
27.5.2009
 41
0.7
 11
1115.7638279905
 21
10.205428663
 31
0.0
 73
     1
  0
POLYLINE
  5
62
  8
0
  6
CONTINUOUS
 62
     7
 66
     1
 10
0.0
 20
0.0
 30
0.0
  0
VERTEX
  5
460
  8
0
  6
CONTINUOUS
 62
     7
 10
1006.1219638616
 20
212.9274870022
 30
0.0
  0
VERTEX
  5
461
  8
0
  6
CONTINUOUS
 62
     7
 10
999.8937553197
 20
213.6748612611
 30
0.0
  0
VERTEX
  5
462
  8
0
  6
CONTINUOUS
 62
     7
 10
993.4231942922
 20
214.4509081482
 30
0.0
  0
VERTEX
  5
463
  8
0
  6
CONTINUOUS
 62
     7
 10
986.6281455785
 20
215.2654223828
 30
0.0
  0
VERTEX
  5
464
  8
0
  6
CONTINUOUS
 62
     7
 10
979.6358650952
 20
216.1031116484
 30
0.0
  0
VERTEX
  5
465
  8
0
  6
CONTINUOUS
 62
     7
 10
972.1753305226
 20
216.9963552369
 30
0.0
  0
VERTEX
  5
466
  8
0
  6
CONTINUOUS
 62
     7
 10
964.5627445012
 20
217.9072501822
 30
0.0
  0
VERTEX
  5
467
  8
0
  6
CONTINUOUS
 62
     7
 10
956.6938585073
 20
218.8482044949
 30
0.0
  0
VERTEX
  5
468
  8
0
  6
CONTINUOUS
 62
     7
 10
948.7356251508
 20
219.7992385118
 30
0.0
  0
SEQEND
  5
469
  8
0
  6
CONTINUOUS
 62
     7
  0
LINE
  5
63
  8
0
  6
CONTINUOUS
 62
     7
 10
1006.1219638616
 20
201.7347237779
 30
0.0
 11
1006.1219638616
 21
212.9274870022
 31
0.0
  0
LINE
  5
64
  8
0
  6
CONTINUOUS
 62
     7
 10
947.5628441602
 20
194.7151955901
 30
0.0
 11
948.7356251508
 21
194.8629722683
 31
0.0
  0
LINE
  5
65
  8
0
  6
CONTINUOUS
 62
     7
 10
947.5628441602
 20
194.7151955901
 30
0.0
 11
947.5628441602
 21
219.94701519
 31
0.0
  0
LINE
  5
66
  8
0
  6
CONTINUOUS
 62
     7
 10
948.7356251508
 20
219.7992385118
 30
0.0
 11
947.5628441602
 21
219.94701519
 31
0.0
  0
POLYLINE
  5
67
  8
0
  6
CONTINUOUS
 62
     7
 66
     1
 10
0.0
 20
0.0
 30
0.0
  0
VERTEX
  5
46A
  8
0
  6
CONTINUOUS
 62
     7
 10
948.7356251508
 20
194.8629722683
 30
0.0
  0
VERTEX
  5
46B
  8
0
  6
CONTINUOUS
 62
     7
 10
956.133813265
 20
195.7470562993
 30
0.0
  0
VERTEX
  5
46C
  8
0
  6
CONTINUOUS
 62
     7
 10
963.4568995267
 20
196.6226876466
 30
0.0
  0
VERTEX
  5
46D
  8
0
  6
CONTINUOUS
 62
     7
 10
970.788449648
 20
197.4998594014
 30
0.0
  0
VERTEX
  5
46E
  8
0
  6
CONTINUOUS
 62
     7
 10
977.9851144582
 20
198.3614091514
 30
0.0
  0
VERTEX
  5
46F
  8
0
  6
CONTINUOUS
 62
     7
 10
985.3053993016
 20
199.2382782264
 30
0.0
  0
VERTEX
  5
470
  8
0
  6
CONTINUOUS
 62
     7
 10
992.4174255162
 20
200.090712191
 30
0.0
  0
VERTEX
  5
471
  8
0
  6
CONTINUOUS
 62
     7
 10
999.4089311391
 20
200.9291870272
 30
0.0
  0
VERTEX
  5
472
  8
0
  6
CONTINUOUS
 62
     7
 10
1006.1219638616
 20
201.7347237779
 30
0.0
  0
SEQEND
  5
473
  8
0
  6
CONTINUOUS
 62
     7
  0
LINE
  5
68
  8
0
  6
CONTINUOUS
 62
     7
 10
1010.1305550367
 20
202.3446618332
 30
0.0
 11
1010.1305550367
 21
212.3175489469
 31
0.0
  0
LINE
  5
69
  8
0
  6
CONTINUOUS
 62
     7
 10
1010.1305550367
 20
212.3175489469
 30
0.0
 11
1006.1219638616
 21
212.9274870022
 31
0.0
  0
LINE
  5
6A
  8
0
  6
CONTINUOUS
 62
     7
 10
1006.1219638616
 20
201.7347237779
 30
0.0
 11
1010.1305550367
 21
202.3446618332
 31
0.0
  0
LINE
  5
6B
  8
0
  6
CONTINUOUS
 62
     7
 10
332.5871533185
 20
113.3311086087
 30
0.0
 11
333.4320491582
 21
113.3134730844
 31
0.0
  0
LINE
  5
6C
  8
0
  6
CONTINUOUS
 62
     7
 10
332.5871533185
 20
113.3311086087
 30
0.0
 11
332.5871533185
 21
301.3311021714
 31
0.0
  0
LINE
  5
6D
  8
0
  6
CONTINUOUS
 62
     7
 10
333.4320491582
 20
301.3487376957
 30
0.0
 11
332.5871533185
 21
301.3311021714
 31
0.0
  0
ARC
  5
6E
  8
0
  6
CONTINUOUS
 62
     7
 10
473.8434978788
 20
155.1121490597
 30
0.0
 40
7.999974247341306
 50
277.5503468253
 51
0.0001695384
  0
LINE
  5
6F
  8
0
  6
CONTINUOUS
 62
     7
 10
481.8434721261
 20
259.5500380485
 30
0.0
 11
481.8434721261
 21
155.1121727316
 31
0.0
  0
ARC
  5
70
  8
0
  6
CONTINUOUS
 62
     7
 10
473.8434978788
 20
259.5500617204
 30
0.0
 40
7.999974247341306
 50
359.9998304616
 51
82.4496531747
  0
LINE
  5
71
  8
0
  6
CONTINUOUS
 62
     7
 10
354.638338688
 20
283.4203981547
 30
0.0
 11
474.8946732312
 21
267.4806744544
 31
0.0
  0
ARC
  5
72
  8
0
  6
CONTINUOUS
 62
     7
 10
353.5871486118
 20
275.4897476235
 30
0.0
 40
8.000013651540486
 50
82.4495842075
 51
179.9998988352
  0
LINE
  5
73
  8
0
  6
CONTINUOUS
 62
     7
 10
345.5871349603
 20
139.1724490313
 30
0.0
 11
345.5871349603
 21
275.4897617488
 31
0.0
  0
ARC
  5
74
  8
0
  6
CONTINUOUS
 62
     7
 10
353.5871512396
 20
139.1724661557
 30
0.0
 40
8.00001627934827
 50
180.0001226441
 51
277.5503943131
  0
LINE
  5
75
  8
0
  6
CONTINUOUS
 62
     7
 10
474.8946732312
 20
147.1815363257
 30
0.0
 11
354.638338688
 21
131.2418126254
 31
0.0
  0
ARC
  5
76
  8
0
  6
CONTINUOUS
 62
     7
 10
615.8435202014
 20
173.9339148328
 30
0.0
 40
7.999941672959189
 50
277.5503577199
 51
0.0004022464
  0
LINE
  5
77
  8
0
  6
CONTINUOUS
 62
     7
 10
623.8434618741
 20
240.7282397835
 30
0.0
 11
623.8434618741
 21
173.9339709966
 31
0.0
  0
ARC
  5
78
  8
0
  6
CONTINUOUS
 62
     7
 10
615.8435202014
 20
240.7282959473
 30
0.0
 40
7.999941672959245
 50
359.9995977536
 51
82.4496422801
  0
LINE
  5
79
  8
0
  6
CONTINUOUS
 62
     7
 10
514.8946648866
 20
262.1787593453
 30
0.0
 11
616.8946927816
 21
248.6588761895
 31
0.0
  0
ARC
  5
7A
  8
0
  6
CONTINUOUS
 62
     7
 10
513.843490119
 20
254.2481214054
 30
0.0
 40
7.999999157850231
 50
82.4496810476
 51
179.9999890139
  0
LINE
  5
7B
  8
0
  6
CONTINUOUS
 62
     7
 10
505.8434909612
 20
160.4140878408
 30
0.0
 11
505.8434909612
 21
254.2481229393
 31
0.0
  0
ARC
  5
7C
  8
0
  6
CONTINUOUS
 62
     7
 10
513.8434795278
 20
160.4140772871
 30
0.0
 40
7.999988566648907
 50
179.9999244145
 51
277.550405524
  0
LINE
  5
7D
  8
0
  6
CONTINUOUS
 62
     7
 10
616.8946927816
 20
166.0033345907
 30
0.0
 11
514.8946648866
 21
152.4834514348
 31
0.0
  0
ARC
  5
7E
  8
0
  6
CONTINUOUS
 62
     7
 10
769.8434184689
 20
194.346419009
 30
0.0
 40
8.000087274649154
 50
277.5508407896
 51
359.9994386426
  0
LINE
  5
7F
  8
0
  6
CONTINUOUS
 62
     7
 10
777.8435057431
 20
220.3158701523
 30
0.0
 11
777.8435057431
 21
194.3463406278
 31
0.0
  0
ARC
  5
80
  8
0
  6
CONTINUOUS
 62
     7
 10
769.8434184689
 20
220.3157917711
 30
0.0
 40
8.000087274649154
 50
0.0005613574
 51
82.4491592104
  0
LINE
  5
81
  8
0
  6
CONTINUOUS
 62
     7
 10
656.8946546346
 20
243.3569648056
 30
0.0
 11
770.8946770459
 21
228.2465074895
 31
0.0
  0
ARC
  5
82
  8
0
  6
CONTINUOUS
 62
     7
 10
655.8434416285
 20
235.4264005698
 30
0.0
 40
7.999931117291358
 50
82.4493401954
 51
180.0005302258
  0
LINE
  5
83
  8
0
  6
CONTINUOUS
 62
     7
 10
647.8435105115
 20
179.2358842431
 30
0.0
 11
647.8435105115
 21
235.426326537
 31
0.0
  0
ARC
  5
84
  8
0
  6
CONTINUOUS
 62
     7
 10
655.8434538185
 20
179.2358241226
 30
0.0
 40
7.999943307226101
 50
179.9995694157
 51
277.5505601632
  0
LINE
  5
85
  8
0
  6
CONTINUOUS
 62
     7
 10
770.8946770459
 20
186.4157032906
 30
0.0
 11
656.8946546346
 21
171.3052459745
 31
0.0
  0
LINE
  5
86
  8
0
  6
CONTINUOUS
 62
     7
 10
947.5628441602
 20
219.94701519
 30
0.0
 11
333.4320491582
 21
301.3487376957
 31
0.0
  0
LINE
  5
87
  8
0
  6
CONTINUOUS
 62
     7
 10
333.4320491582
 20
113.3134730844
 30
0.0
 11
947.5628441602
 21
194.7151955901
 31
0.0
  0
LINE
  5
88
  8
0
  6
CONTINUOUS
 62
     7
 10
218.1793904334
 20
301.3311021714
 30
0.0
 11
217.023268941
 21
301.3311021714
 31
0.0
  0
LINE
  5
89
  8
0
  6
CONTINUOUS
 62
     7
 10
218.1793904334
 20
113.3311086087
 30
0.0
 11
218.1793904334
 21
301.3311021714
 31
0.0
  0
LINE
  5
8A
  8
0
  6
CONTINUOUS
 62
     7
 10
217.023268941
 20
113.3311086087
 30
0.0
 11
218.1793904334
 21
113.3311086087
 31
0.0
  0
LINE
  5
8B
  8
0
  6
CONTINUOUS
 62
     7
 10
149.8434847623
 20
265.8047296791
 30
0.0
 11
149.8434847623
 21
214.8311052224
 31
0.0
  0
ARC
  5
8C
  8
0
  6
CONTINUOUS
 62
     7
 10
141.8434819326
 20
265.8047249746
 30
0.0
 40
8.000002829695928
 50
0.0000336935
 51
99.7891522928
  0
LINE
  5
8D
  8
0
  6
CONTINUOUS
 62
     7
 10
97.483298409
 20
266.2692361264
 30
0.0
 11
140.4832980066
 21
273.6882486133
 31
0.0
  0
ARC
  5
8E
  8
0
  6
CONTINUOUS
 62
     7
 10
98.8434883064
 20
258.385711485
 30
0.0
 40
8.00000483302772
 50
99.7891932165
 51
179.999985806
  0
LINE
  5
8F
  8
0
  6
CONTINUOUS
 62
     7
 10
90.8434834734
 20
222.8311051367
 30
0.0
 11
90.8434834734
 21
258.3857134669
 31
0.0
  0
ARC
  5
90
  8
0
  6
CONTINUOUS
 62
     7
 10
98.8434849771
 20
222.8311067262
 30
0.0
 40
8.000001503780668
 50
180.0000113837
 51
269.9999919514
  0
LINE
  5
91
  8
0
  6
CONTINUOUS
 62
     7
 10
149.8434847623
 20
214.8311052224
 30
0.0
 11
98.8434838533
 21
214.8311052224
 31
0.0
  0
ARC
  5
92
  8
0
  6
CONTINUOUS
 62
     7
 10
195.8434802764
 20
275.1216170899
 30
0.0
 40
8.00000961189819
 50
0.0000821591
 51
99.7891487698
  0
LINE
  5
93
  8
0
  6
CONTINUOUS
 62
     7
 10
170.4832991987
 20
278.8643085151
 30
0.0
 11
194.4832956821
 21
283.0051474957
 31
0.0
  0
ARC
  5
94
  8
0
  6
CONTINUOUS
 62
     7
 10
171.8434935658
 20
270.980779164
 30
0.0
 40
8.000010234022065
 50
99.7892190271
 51
179.9999787563
  0
LINE
  5
95
  8
0
  6
CONTINUOUS
 62
     7
 10
163.8434833318
 20
222.8311051367
 30
0.0
 11
163.8434833318
 21
270.9807821302
 31
0.0
  0
ARC
  5
96
  8
0
  6
CONTINUOUS
 62
     7
 10
171.8434896545
 20
222.8311115451
 30
0.0
 40
8.000006322726174
 50
180.0000458968
 51
269.9999641084
  0
LINE
  5
97
  8
0
  6
CONTINUOUS
 62
     7
 10
195.8434811264
 20
214.8311052224
 30
0.0
 11
171.8434846431
 21
214.8311052224
 31
0.0
  0
ARC
  5
98
  8
0
  6
CONTINUOUS
 62
     7
 10
195.8434846128
 20
222.8311104979
 30
0.0
 40
8.000005275507638
 50
269.9999750307
 51
359.9999616033
  0
LINE
  5
99
  8
0
  6
CONTINUOUS
 62
     7
 10
203.8434898883
 20
275.1216285615
 30
0.0
 11
203.8434898883
 21
222.8311051367
 31
0.0
  0
ARC
  5
9A
  8
0
  6
CONTINUOUS
 62
     7
 10
195.8434823671
 20
139.5405912079
 30
0.0
 40
8.000007521205125
 50
260.2108334521
 51
359.999935619
  0
LINE
  5
9B
  8
0
  6
CONTINUOUS
 62
     7
 10
203.8434898883
 20
191.8311056434
 30
0.0
 11
203.8434898883
 21
139.5405822186
 31
0.0
  0
ARC
  5
9C
  8
0
  6
CONTINUOUS
 62
     7
 10
195.8434846128
 20
191.8311002822
 30
0.0
 40
8.000005275507666
 50
0.0000383967
 51
90.0000249693
  0
LINE
  5
9D
  8
0
  6
CONTINUOUS
 62
     7
 10
171.8434846431
 20
199.8311055577
 30
0.0
 11
195.8434811264
 21
199.8311055577
 31
0.0
  0
ARC
  5
9E
  8
0
  6
CONTINUOUS
 62
     7
 10
171.8434896077
 20
191.8310992818
 30
0.0
 40
8.000006275929456
 50
90.0000355565
 51
179.9999544384
  0
LINE
  5
9F
  8
0
  6
CONTINUOUS
 62
     7
 10
163.8434833318
 20
143.6814286499
 30
0.0
 11
163.8434833318
 21
191.8311056434
 31
0.0
  0
ARC
  5
A0
  8
0
  6
CONTINUOUS
 62
     7
 10
171.8434935658
 20
143.6814316161
 30
0.0
 40
8.000010234022065
 50
180.0000212437
 51
260.2107809729
  0
LINE
  5
A1
  8
0
  6
CONTINUOUS
 62
     7
 10
194.4832956821
 20
131.6570632844
 30
0.0
 11
170.4832991987
 21
135.7979022651
 31
0.0
  0
ARC
  5
A2
  8
0
  6
CONTINUOUS
 62
     7
 10
141.8434796955
 20
148.8574884617
 30
0.0
 40
8.000005066799508
 50
260.2108667303
 51
359.9999472834
  0
LINE
  5
A3
  8
0
  6
CONTINUOUS
 62
     7
 10
149.8434847623
 20
191.8311056434
 30
0.0
 11
149.8434847623
 21
148.857481101
 31
0.0
  0
ARC
  5
A4
  8
0
  6
CONTINUOUS
 62
     7
 10
141.8434794868
 20
191.8311002822
 30
0.0
 40
8.000005275507975
 50
0.0000383967
 51
89.9999716085
  0
LINE
  5
A5
  8
0
  6
CONTINUOUS
 62
     7
 10
98.8434838533
 20
199.8311055577
 30
0.0
 11
141.843483451
 21
199.8311055577
 31
0.0
  0
ARC
  5
A6
  8
0
  6
CONTINUOUS
 62
     7
 10
98.8434841253
 20
191.8311049058
 30
0.0
 40
8.000000651931122
 50
90.0000019477
 51
179.9999947172
  0
LINE
  5
A7
  8
0
  6
CONTINUOUS
 62
     7
 10
90.8434834734
 20
156.2764973132
 30
0.0
 11
90.8434834734
 21
191.8311056434
 31
0.0
  0
ARC
  5
A8
  8
0
  6
CONTINUOUS
 62
     7
 10
98.8434883064
 20
156.2764992951
 30
0.0
 40
8.000004833027734
 50
180.000014194
 51
260.2108067835
  0
LINE
  5
A9
  8
0
  6
CONTINUOUS
 62
     7
 10
140.4832980066
 20
140.9739621668
 30
0.0
 11
97.483298409
 21
148.3929746537
 31
0.0
  0
LINE
  5
AA
  8
0
  6
CONTINUOUS
 62
     7
 10
75.8434838086
 20
137.6895897775
 30
0.0
 11
217.023268941
 21
113.3311086087
 31
0.0
  0
LINE
  5
AB
  8
0
  6
CONTINUOUS
 62
     7
 10
217.023268941
 20
301.3311021714
 30
0.0
 11
75.8434838086
 21
276.9726210027
 31
0.0
  0
LINE
  5
AC
  8
0
  6
CONTINUOUS
 62
     7
 10
75.8434838086
 20
137.6895897775
 30
0.0
 11
75.8434838086
 21
276.9726210027
 31
0.0
  0
ARC
  5
AD
  8
0
  6
CONTINUOUS
 62
     7
 10
235.8434963502
 20
276.620095565
 30
0.0
 40
8.000017429160813
 50
90.0001154353
 51
179.9998845647
  0
LINE
  5
AE
  8
0
  6
CONTINUOUS
 62
     7
 10
227.843478921
 20
222.8311051367
 30
0.0
 11
227.843478921
 21
276.6201116829
 31
0.0
  0
ARC
  5
AF
  8
0
  6
CONTINUOUS
 62
     7
 10
235.8434775479
 20
222.8311038493
 30
0.0
 40
7.999998626868877
 50
179.9999907793
 51
270.0000192258
  0
LINE
  5
B0
  8
0
  6
CONTINUOUS
 62
     7
 10
266.587138775
 20
214.8311052224
 30
0.0
 11
235.8434802323
 21
214.8311052224
 31
0.0
  0
ARC
  5
B1
  8
0
  6
CONTINUOUS
 62
     7
 10
266.5871448596
 20
222.8311004491
 30
0.0
 40
7.999995226725058
 50
269.9999564224
 51
0.0000335725
  0
LINE
  5
B2
  8
0
  6
CONTINUOUS
 62
     7
 10
274.5871400863
 20
276.6201116829
 30
0.0
 11
274.5871400863
 21
222.8311051367
 31
0.0
  0
ARC
  5
B3
  8
0
  6
CONTINUOUS
 62
     7
 10
266.5871305254
 20
276.6201034333
 30
0.0
 40
8.000009560913998
 50
0.0000590834
 51
89.9999409166
  0
LINE
  5
B4
  8
0
  6
CONTINUOUS
 62
     7
 10
235.8434802323
 20
284.6201129942
 30
0.0
 11
266.587138775
 21
284.6201129942
 31
0.0
  0
ARC
  5
B5
  8
0
  6
CONTINUOUS
 62
     7
 10
266.5871347794
 20
191.8311002508
 30
0.0
 40
8.000005306933359
 50
0.0000386217
 51
89.9999713834
  0
LINE
  5
B6
  8
0
  6
CONTINUOUS
 62
     7
 10
235.8434802323
 20
199.8311055577
 30
0.0
 11
266.587138775
 21
199.8311055577
 31
0.0
  0
ARC
  5
B7
  8
0
  6
CONTINUOUS
 62
     7
 10
235.8434876848
 20
191.831096794
 30
0.0
 40
8.000008763715417
 50
90.0000533739
 51
179.999936621
  0
LINE
  5
B8
  8
0
  6
CONTINUOUS
 62
     7
 10
227.843478921
 20
138.0420990972
 30
0.0
 11
227.843478921
 21
191.8311056434
 31
0.0
  0
ARC
  5
B9
  8
0
  6
CONTINUOUS
 62
     7
 10
235.843484658
 20
138.0421035229
 30
0.0
 40
8.00000573695681
 50
180.0000316964
 51
269.9999683036
  0
LINE
  5
BA
  8
0
  6
CONTINUOUS
 62
     7
 10
266.587138775
 20
130.0420977859
 30
0.0
 11
235.8434802323
 21
130.0420977859
 31
0.0
  0
ARC
  5
BB
  8
0
  6
CONTINUOUS
 62
     7
 10
266.5871450144
 20
138.0420928578
 30
0.0
 40
7.999995071841385
 50
269.9999553131
 51
0.0000446869
  0
LINE
  5
BC
  8
0
  6
CONTINUOUS
 62
     7
 10
274.5871400863
 20
191.8311056434
 30
0.0
 11
274.5871400863
 21
138.0420990972
 31
0.0
  0
LINE
  5
BD
  8
0
  6
CONTINUOUS
 62
     7
 10
218.1793904334
 20
113.3311086087
 30
0.0
 11
332.5871533185
 21
113.3311086087
 31
0.0
  0
LINE
  5
BE
  8
0
  6
CONTINUOUS
 62
     7
 10
332.5871533185
 20
301.3311021714
 30
0.0
 11
218.1793904334
 21
301.3311021714
 31
0.0
  0
LINE
  5
BF
  8
0
  6
HIDDEN
 62
     7
 10
75.8434838086
 20
276.972620114
 30
0.0
 11
68.8434838086
 21
275.7648736351
 31
0.0
  0
LINE
  5
C0
  8
0
  6
HIDDEN
 62
     7
 10
68.8434838086
 20
275.7648736351
 30
0.0
 11
68.8434838086
 21
138.897337145
 31
0.0
  0
LINE
  5
C1
  8
0
  6
HIDDEN
 62
     7
 10
68.8434838086
 20
138.897337145
 30
0.0
 11
75.8434838086
 21
137.6895906661
 31
0.0
  0
LINE
  5
C2
  8
0
  6
HIDDEN
 62
     7
 10
1010.1305474719
 20
212.317548953
 30
0.0
 11
1017.1305474719
 21
211.0228657203
 31
0.0
  0
LINE
  5
C3
  8
0
  6
HIDDEN
 62
     7
 10
1017.1305474719
 20
211.0228657203
 30
0.0
 11
1017.1305474719
 21
203.6393450598
 31
0.0
  0
LINE
  5
C4
  8
0
  6
HIDDEN
 62
     7
 10
1017.1305474719
 20
203.6393450598
 30
0.0
 11
1010.1305474719
 21
202.3446618272
 31
0.0
  0
ARC
  5
C5
  8
0
  6
CONTINUOUS
 62
     7
 10
157.0362653221
 20
11.5328567719
 30
0.0
 40
176.123234992373
 50
2.0079917951
 51
4.9255408118
  0
LINE
  5
C6
  8
0
  6
CONTINUOUS
 62
     7
 10
332.5090984816
 20
26.6549838435
 30
0.0
 11
948.069928121
 21
84.4981306892
 31
0.0
  0
ARC
  5
C7
  8
0
  6
CONTINUOUS
 62
     7
 10
854.597381338
 20
75.4871163966
 30
0.0
 40
93.90588576169371
 50
0.0303921442
 51
5.5064569845
  0
LINE
  5
C8
  8
0
  6
CONTINUOUS
 62
     7
 10
948.5032538885
 20
75.5369281124
 30
0.0
 11
333.0513517374
 21
17.7040202271
 31
0.0
  0
LINE
  5
C9
  8
0
  6
CONTINUOUS
 62
     7
 10
288.5149548764
 20
18.2396350157
 30
0.0
 11
288.5149548764
 21
15.9611729633
 31
0.0
  0
ARC
  5
CA
  8
0
  6
CONTINUOUS
 62
     7
 10
285.5176986295
 20
617.4103648937
 30
0.0
 40
601.4566587349345
 50
263.5712522512
 51
270.2855247491
  0
POLYLINE
  5
CB
  8
0
  6
CONTINUOUS
 62
     7
 66
     1
 10
0.0
 20
0.0
 30
0.0
  0
VERTEX
  5
474
  8
0
  6
CONTINUOUS
 62
     7
 10
219.1817889923
 20
28.6791501295
 30
0.0
  0
VERTEX
  5
475
  8
0
  6
CONTINUOUS
 62
     7
 10
218.8541273588
 20
25.7712034237
 30
0.0
  0
VERTEX
  5
476
  8
0
  6
CONTINUOUS
 62
     7
 10
218.5390721077
 20
22.9750005256
 30
0.0
  0
VERTEX
  5
477
  8
0
  6
CONTINUOUS
 62
     7
 10
218.1740830654
 20
19.7357488524
 30
0.0
  0
SEQEND
  5
478
  8
0
  6
CONTINUOUS
 62
     7
  0
ARC
  5
CC
  8
0
  6
CONTINUOUS
 62
     7
 10
285.5176986295
 20
617.4103648937
 30
0.0
 40
592.4566587349346
 50
263.5712522512
 51
274.5485988898
  0
LINE
  5
CD
  8
0
  6
CONTINUOUS
 62
     7
 10
332.5022737498
 20
26.8196938288
 30
0.0
 11
332.5090984816
 21
26.6549838435
 31
0.0
  0
LINE
  5
CE
  8
0
  6
CONTINUOUS
 62
     7
 10
333.0513517374
 20
17.7040202271
 30
0.0
 11
332.3043267245
 21
17.7762089025
 31
0.0
  0
ARC
  5
CF
  8
0
  6
CONTINUOUS
 62
     7
 10
285.5176986295
 20
617.4103648937
 30
0.0
 40
601.4566587349346
 50
273.7982440113
 51
274.4614798181
  0
POLYLINE
  5
D0
  8
0
  6
CONTINUOUS
 62
     7
 66
     1
 10
0.0
 20
0.0
 30
0.0
  0
VERTEX
  5
479
  8
0
  6
CONTINUOUS
 62
     7
 10
325.360191893
 20
17.2748071801
 30
0.0
  0
VERTEX
  5
47A
  8
0
  6
CONTINUOUS
 62
     7
 10
310.4567210192
 20
17.6650685918
 30
0.0
  0
VERTEX
  5
47B
  8
0
  6
CONTINUOUS
 62
     7
 10
295.5297063107
 20
18.0559484016
 30
0.0
  0
VERTEX
  5
47C
  8
0
  6
CONTINUOUS
 62
     7
 10
288.5149548764
 20
18.2396350157
 30
0.0
  0
SEQEND
  5
47D
  8
0
  6
CONTINUOUS
 62
     7
  0
CIRCLE
  5
D1
  8
0
  6
CONTINUOUS
 62
     7
 10
367.3319845758
 20
39.7649067575
 30
0.0
 40
6.000007287285908
  0
LINE
  5
D2
  8
0
  6
CONTINUOUS
 62
     7
 10
948.0022768492
 20
98.2734756272
 30
0.0
 11
991.6723947043
 21
98.2734756272
 31
0.0
  0
ARC
  5
D3
  8
0
  6
CONTINUOUS
 62
     7
 10
937.9191134162
 20
192.5221530135
 30
0.0
 40
108.499900637209
 50
275.3682134806
 51
299.6976077971
  0
LINE
  5
D4
  8
0
  6
CONTINUOUS
 62
     7
 10
332.5022737498
 20
26.8196938288
 30
0.0
 11
332.5022737498
 21
102.7734754335
 31
0.0
  0
LINE
  5
D5
  8
0
  6
CONTINUOUS
 62
     7
 10
332.5022737498
 20
102.7734754335
 30
0.0
 11
943.5022453779
 21
102.7734754335
 31
0.0
  0
ARC
  5
D6
  8
0
  6
CONTINUOUS
 62
     7
 10
948.0023237893
 20
102.7735540391
 30
0.0
 40
4.500078412082842
 50
180.0010008195
 51
269.9994023499
  0
ARC
  5
D7
  8
0
  6
CONTINUOUS
 62
     7
 10
404.7840935721
 20
42.6713947209
 30
0.0
 40
7.999998571434275
 50
179.99998819
 51
275.3681821471
  0
LINE
  5
D8
  8
0
  6
CONTINUOUS
 62
     7
 10
405.5325369353
 20
34.7064835679
 30
0.0
 11
479.2507271284
 21
41.633649702
 31
0.0
  0
ARC
  5
D9
  8
0
  6
CONTINUOUS
 62
     7
 10
478.502253698
 20
49.5985937333
 30
0.0
 40
8.000034118511298
 50
275.3683745131
 51
359.9997763376
  0
LINE
  5
DA
  8
0
  6
CONTINUOUS
 62
     7
 10
486.5022878165
 20
49.598562504
 30
0.0
 11
486.5022878165
 21
81.7734757166
 31
0.0
  0
ARC
  5
DB
  8
0
  6
CONTINUOUS
 62
     7
 10
478.5022656023
 20
81.7734529511
 30
0.0
 40
8.000022214164836
 50
0.0001630455
 51
89.9999570163
  0
LINE
  5
DC
  8
0
  6
CONTINUOUS
 62
     7
 10
478.502271604
 20
89.7734751653
 30
0.0
 11
362.5743369574
 21
89.7734751653
 31
0.0
  0
ARC
  5
DD
  8
0
  6
CONTINUOUS
 62
     7
 10
362.5743150449
 20
85.7734796078
 30
0.0
 40
3.999995557582416
 50
89.9996861263
 51
230.8551626275
  0
LINE
  5
DE
  8
0
  6
CONTINUOUS
 62
     7
 10
360.0491861815
 20
82.6712725412
 30
0.0
 11
393.83438034
 21
55.1706766438
 31
0.0
  0
ARC
  5
DF
  8
0
  6
CONTINUOUS
 62
     7
 10
388.7841439251
 20
48.9662967904
 30
0.0
 40
7.999951075598577
 50
359.9998275139
 51
50.8551260176
  0
LINE
  5
E0
  8
0
  6
CONTINUOUS
 62
     7
 10
396.7840950007
 20
48.9662727069
 30
0.0
 11
396.7840950007
 21
42.6713963699
 31
0.0
  0
ARC
  5
E1
  8
0
  6
CONTINUOUS
 62
     7
 10
508.5022568425
 20
52.4175763525
 30
0.0
 40
7.999970456566791
 50
179.9997937032
 51
275.3684033144
  0
LINE
  5
E2
  8
0
  6
CONTINUOUS
 62
     7
 10
509.2507283205
 20
44.4526960801
 30
0.0
 11
621.2507466788
 21
54.9771329116
 31
0.0
  0
ARC
  5
E3
  8
0
  6
CONTINUOUS
 62
     7
 10
620.5023039006
 20
62.9419891689
 30
0.0
 40
7.99994386174252
 50
275.3682147585
 51
0.0004049746
  0
LINE
  5
E4
  8
0
  6
CONTINUOUS
 62
     7
 10
628.5022477621
 20
62.9420457136
 30
0.0
 11
628.5022477621
 21
81.7734757166
 31
0.0
  0
ARC
  5
E5
  8
0
  6
CONTINUOUS
 62
     7
 10
620.5023273674
 20
81.7735547702
 30
0.0
 40
7.999920395167204
 50
359.9994338149
 51
90.0002593594
  0
LINE
  5
E6
  8
0
  6
CONTINUOUS
 62
     7
 10
620.5022911543
 20
89.7734751653
 30
0.0
 11
508.5022727961
 21
89.7734751653
 31
0.0
  0
ARC
  5
E7
  8
0
  6
CONTINUOUS
 62
     7
 10
508.5022559878
 20
81.7735055634
 30
0.0
 40
7.999969601928918
 50
89.9998796192
 51
180.0002137624
  0
LINE
  5
E8
  8
0
  6
CONTINUOUS
 62
     7
 10
500.5022863859
 20
81.7734757166
 30
0.0
 11
500.5022863859
 21
52.4176051568
 31
0.0
  0
ARC
  5
E9
  8
0
  6
CONTINUOUS
 62
     7
 10
650.5023129552
 20
65.7611623891
 30
0.0
 40
8.00006662390151
 50
180.0005034638
 51
275.3678612
  0
LINE
  5
EA
  8
0
  6
CONTINUOUS
 62
     7
 10
651.2507180685
 20
57.7961792898
 30
0.0
 11
775.2507309431
 21
69.4482354175
 31
0.0
  0
ARC
  5
EB
  8
0
  6
CONTINUOUS
 62
     7
 10
774.502254218
 20
77.4131824484
 30
0.0
 40
8.000037413234264
 50
275.3683959962
 51
359.9997681947
  0
LINE
  5
EC
  8
0
  6
CONTINUOUS
 62
     7
 10
782.5022916312
 20
77.4131500822
 30
0.0
 11
782.5022916312
 21
81.7734757166
 31
0.0
  0
ARC
  5
ED
  8
0
  6
CONTINUOUS
 62
     7
 10
774.5022526417
 20
81.7734361758
 30
0.0
 40
8.00003898951338
 50
0.0002831889
 51
89.9998368729
  0
LINE
  5
EE
  8
0
  6
CONTINUOUS
 62
     7
 10
774.5022754187
 20
89.7734751653
 30
0.0
 11
650.5022625441
 21
89.7734751653
 31
0.0
  0
ARC
  5
EF
  8
0
  6
CONTINUOUS
 62
     7
 10
650.502325506
 20
81.7733959908
 30
0.0
 40
8.000079174752424
 50
90.0004509269
 51
179.9994290113
  0
LINE
  5
F0
  8
0
  6
CONTINUOUS
 62
     7
 10
642.5022463316
 20
81.7734757166
 30
0.0
 11
642.5022463316
 21
65.7610920917
 31
0.0
  0
LINE
  5
F1
  8
0
  6
CONTINUOUS
 62
     7
 10
75.502274465
 20
102.7734754335
 30
0.0
 11
217.5022791142
 21
102.7734754335
 31
0.0
  0
LINE
  5
F2
  8
0
  6
CONTINUOUS
 62
     7
 10
217.5022791142
 20
28.8683948767
 30
0.0
 11
217.5022791142
 21
102.7734754335
 31
0.0
  0
LINE
  5
F3
  8
0
  6
CONTINUOUS
 62
     7
 10
217.4865136856
 20
28.5828066718
 30
0.0
 11
217.5022791142
 21
28.8683948767
 31
0.0
  0
LINE
  5
F4
  8
0
  6
CONTINUOUS
 62
     7
 10
75.502274465
 20
44.5810323309
 30
0.0
 11
217.4865136856
 21
28.5828066718
 31
0.0
  0
LINE
  5
F5
  8
0
  6
CONTINUOUS
 62
     7
 10
75.502274465
 20
44.5810323309
 30
0.0
 11
75.502274465
 21
102.7734754335
 31
0.0
  0
LINE
  5
F6
  8
0
  6
CONTINUOUS
 62
     7
 10
100.1536640341
 20
64.4859065961
 30
0.0
 11
114.42335872
 21
48.8531207394
 31
0.0
  0
ARC
  5
F7
  8
0
  6
CONTINUOUS
 62
     7
 10
115.1487245682
 20
49.5132124195
 30
0.0
 40
0.980753098300961
 50
222.3025727932
 51
263.4912326063
  0
LINE
  5
F8
  8
0
  6
CONTINUOUS
 62
     7
 10
115.0375510568
 20
48.538780744
 30
0.0
 11
165.1539633984
 21
42.8918590497
 31
0.0
  0
LINE
  5
F9
  8
0
  6
CONTINUOUS
 62
     7
 10
165.1539633984
 20
42.8918590497
 30
0.0
 11
200.011541974
 21
42.8918590497
 31
0.0
  0
ARC
  5
FA
  8
0
  6
CONTINUOUS
 62
     7
 10
199.9331324251
 20
52.8245856114
 30
0.0
 40
9.933036041711448
 50
270.452286981
 51
0.3880593465
  0
LINE
  5
FB
  8
0
  6
CONTINUOUS
 62
     7
 10
209.8659406418
 20
52.8918606889
 30
0.0
 11
209.8659406418
 21
85.7734745097
 31
0.0
  0
ARC
  5
FC
  8
0
  6
CONTINUOUS
 62
     7
 10
208.8730908956
 20
85.7806267886
 30
0.0
 40
0.9928755076745107
 50
359.587260497
 51
89.5726097489
  0
LINE
  5
FD
  8
0
  6
CONTINUOUS
 62
     7
 10
208.8804970497
 20
86.7734746736
 30
0.0
 11
100.8766087705
 21
86.7734746736
 31
0.0
  0
ARC
  5
FE
  8
0
  6
CONTINUOUS
 62
     7
 10
100.8838626175
 20
85.7807805769
 30
0.0
 40
0.9927205991308504
 50
90.4186661539
 51
180.4216801736
  0
LINE
  5
FF
  8
0
  6
CONTINUOUS
 62
     7
 10
99.8911689038
 20
85.7734745097
 30
0.0
 11
99.8911689038
 21
65.1654591512
 31
0.0
  0
ARC
  5
100
  8
0
  6
CONTINUOUS
 62
     7
 10
100.8996143991
 20
65.1645237525
 30
0.0
 40
1.008445929115589
 50
179.9468544571
 51
222.2938877629
  0
LINE
  5
101
  8
0
  6
CONTINUOUS
 62
     7
 10
217.5022791142
 20
102.7734754335
 30
0.0
 11
332.5022737498
 21
102.7734754335
 31
0.0
  0
LINE
  5
102
  8
0
  6
CONTINUOUS
 62
     7
 10
217.5022791142
 20
28.8683948767
 30
0.0
 11
219.1817889923
 21
28.6791501295
 31
0.0
  0
CIRCLE
  5
103
  8
0
  6
CONTINUOUS
 62
     7
 10
252.502274465
 20
47.7734754335
 30
0.0
 40
13.00000000000001
  0
CIRCLE
  5
104
  8
0
  6
CONTINUOUS
 62
     7
 10
282.502274465
 20
46.9878977864
 30
0.0
 40
2.5
  0
LINE
  5
105
  8
0
  6
CONTINUOUS
 62
     7
 10
324.3043254132
 20
39.2396328699
 30
0.0
 11
324.3043254132
 21
85.7734745097
 31
0.0
  0
ARC
  5
106
  8
0
  6
CONTINUOUS
 62
     7
 10
323.3043183521
 20
85.7734754335
 30
0.0
 40
1.0
 50
0.0
 51
90.0
  0
LINE
  5
107
  8
0
  6
CONTINUOUS
 62
     7
 10
323.3043233866
 20
86.7734746736
 30
0.0
 11
226.759178471
 21
86.7734746736
 31
0.0
  0
ARC
  5
108
  8
0
  6
CONTINUOUS
 62
     7
 10
226.7591793905
 20
85.7734754335
 30
0.0
 40
1.0
 50
90.0
 51
180.0
  0
ARC
  5
109
  8
0
  6
CONTINUOUS
 62
     7
 10
226.7591793905
 20
69.7734754335
 30
0.0
 40
1.0
 50
180.0
 51
270.0
  0
LINE
  5
10A
  8
0
  6
CONTINUOUS
 62
     7
 10
226.759178471
 20
68.7734735858
 30
0.0
 11
276.1853466744
 21
68.7734735858
 31
0.0
  0
ARC
  5
10B
  8
0
  6
CONTINUOUS
 62
     7
 10
276.1853511549
 20
43.7734754335
 30
0.0
 40
25.00000000000001
 50
18.1339035836
 51
90.0
  0
LINE
  5
10C
  8
0
  6
CONTINUOUS
 62
     7
 10
299.9436388726
 20
51.5544442188
 30
0.0
 11
304.0787409062
 21
38.928392316
 31
0.0
  0
ARC
  5
10D
  8
0
  6
CONTINUOUS
 62
     7
 10
305.02907704
 20
39.2396326593
 30
0.0
 40
1.0
 50
198.1339035836
 51
270.0
  0
LINE
  5
10E
  8
0
  6
CONTINUOUS
 62
     7
 10
305.0290773625
 20
38.2396308433
 30
0.0
 11
323.3043233866
 21
38.2396308433
 31
0.0
  0
ARC
  5
10F
  8
0
  6
CONTINUOUS
 62
     7
 10
323.3043183521
 20
39.2396326593
 30
0.0
 40
1.0
 50
270.0
 51
0.0
  0
LINE
  5
110
  8
0
  6
CONTINUOUS
 62
     7
 10
225.7591764445
 20
85.7734745097
 30
0.0
 11
225.7591764445
 21
69.7734756123
 31
0.0
  0
LINE
  5
111
  8
0
  6
CONTINUOUS
 62
     7
 10
217.7591751332
 20
19.7824937951
 30
0.0
 11
216.7535404677
 21
19.6675611388
 31
0.0
  0
ARC
  5
112
  8
0
  6
CONTINUOUS
 62
     7
 10
359.5581850804
 20
12.4145299871
 30
0.0
 40
142.9887162815514
 50
173.5074631112
 51
177.0924524757
  0
LINE
  5
113
  8
0
  6
CONTINUOUS
 62
     7
 10
218.1740830654
 20
19.7357488524
 30
0.0
 11
217.7591751332
 21
19.7824937951
 31
0.0
  0
LINE
  5
114
  8
0
  6
CONTINUOUS
 62
     7
 10
75.502274465
 20
35.6098366629
 30
0.0
 11
75.502274465
 21
44.5810323309
 31
0.0
  0
LINE
  5
115
  8
0
  6
CONTINUOUS
 62
     7
 10
216.7535404677
 20
19.6675611388
 30
0.0
 11
76.0123437738
 21
35.525719608
 31
0.0
  0
LINE
  5
116
  8
0
  6
CONTINUOUS
 62
     7
 10
76.0123437738
 20
35.525719608
 30
0.0
 11
75.502274465
 21
35.6098366629
 31
0.0
  0
LINE
  5
117
  8
0
  6
CONTINUOUS
 62
     7
 10
991.6723947043
 20
98.2734756272
 30
0.0
 11
1007.6454858298
 21
98.2734756272
 31
0.0
  0
ARC
  5
118
  8
0
  6
CONTINUOUS
 62
     7
 10
937.5122874214
 20
192.4151560961
 30
0.0
 40
117.3938734367506
 50
275.3721682537
 51
306.6851895417
  0
LINE
  5
119
  8
0
  6
CONTINUOUS
 62
     7
 10
75.502274465
 20
35.5831933867
 30
0.0
 11
75.502274465
 21
35.6098366629
 31
0.0
  0
LINE
  5
11A
  8
0
  6
HIDDEN
 62
     7
 10
75.502274465
 20
102.7734754335
 30
0.0
 11
68.502274465
 21
102.7734754335
 31
0.0
  0
LINE
  5
11B
  8
0
  6
HIDDEN
 62
     7
 10
68.502274465
 20
102.7734754335
 30
0.0
 11
68.502274465
 21
36.3985679796
 31
0.0
  0
LINE
  5
11C
  8
0
  6
HIDDEN
 62
     7
 10
68.502274465
 20
36.3985679796
 30
0.0
 11
75.502274465
 21
35.6098355852
 31
0.0
  0
INSERT
  5
124
  8
0
  6
CONTINUOUS
 62
     7
  2
SW_CENTERMARKSYMBOL_0
 10
948.002274465
 20
102.7734754335
 30
0.0
  0
POLYLINE
  5
125
  8
0
  6
CONTINUOUS
 62
     7
 66
     1
 10
0.0
 20
0.0
 30
0.0
  0
VERTEX
  5
47E
  8
0
  6
CONTINUOUS
 62
     7
 10
199.0811776765
 20
354.5632401909
 30
0.0
  0
VERTEX
  5
47F
  8
0
  6
CONTINUOUS
 62
     7
 10
204.0494865202
 20
353.9782206024
 30
0.0
  0
VERTEX
  5
480
  8
0
  6
CONTINUOUS
 62
     7
 10
209.081177453
 20
353.3857392575
 30
0.0
  0
SEQEND
  5
481
  8
0
  6
CONTINUOUS
 62
     7
  0
POLYLINE
  5
126
  8
0
  6
CONTINUOUS
 62
     7
 66
     1
 10
0.0
 20
0.0
 30
0.0
  0
VERTEX
  5
482
  8
0
  6
CONTINUOUS
 62
     7
 10
209.081177453
 20
423.8238038923
 30
0.0
  0
VERTEX
  5
483
  8
0
  6
CONTINUOUS
 62
     7
 10
204.0494865202
 20
422.9379410352
 30
0.0
  0
VERTEX
  5
484
  8
0
  6
CONTINUOUS
 62
     7
 10
199.0875551043
 20
422.0643623228
 30
0.0
  0
SEQEND
  5
485
  8
0
  6
CONTINUOUS
 62
     7
  0
ARC
  5
127
  8
0
  6
CONTINUOUS
 62
     7
 10
157.495481038
 20
384.9251045866
 30
0.0
 40
25.48152686457096
 50
234.9542128483
 51
260.122680705
  0
ARC
  5
128
  8
0
  6
CONTINUOUS
 62
     7
 10
156.7235368462
 20
387.7526480478
 30
0.0
 40
26.88280850884635
 50
201.0978000037
 51
213.13791787
  0
LINE
  5
129
  8
0
  6
CONTINUOUS
 62
     7
 10
129.0811773785
 20
391.0632396544
 30
0.0
 11
129.2298760661
 21
388.0624610427
 31
0.0
  0
POLYLINE
  5
12A
  8
0
  6
CONTINUOUS
 62
     7
 66
     1
 10
0.0
 20
0.0
 30
0.0
  0
VERTEX
  5
486
  8
0
  6
CONTINUOUS
 62
     7
 10
198.6243688722
 20
354.6160089279
 30
0.0
  0
VERTEX
  5
487
  8
0
  6
CONTINUOUS
 62
     7
 10
198.9247768785
 20
354.5831481422
 30
0.0
  0
VERTEX
  5
488
  8
0
  6
CONTINUOUS
 62
     7
 10
199.0804220106
 20
354.5584978963
 30
0.0
  0
SEQEND
  5
489
  8
0
  6
CONTINUOUS
 62
     7
  0
LINE
  5
12B
  8
0
  6
CONTINUOUS
 62
     7
 10
129.1011821874
 20
391.553722842
 30
0.0
 11
129.0811773785
 21
391.0632396544
 31
0.0
  0
LINE
  5
12C
  8
0
  6
CONTINUOUS
 62
     7
 10
199.0811776765
 20
422.0632391478
 30
0.0
 11
196.9953026552
 21
421.6960074807
 31
0.0
  0
LINE
  5
12D
  8
0
  6
CONTINUOUS
 62
     7
 10
197.0034822286
 20
421.6974473054
 30
0.0
 11
196.8400064786
 21
421.6742033566
 31
0.0
  0
LINE
  5
12E
  8
0
  6
CONTINUOUS
 62
     7
 10
196.8317647395
 20
421.673309287
 30
0.0
 11
129.0811773785
 21
414.3132402058
 31
0.0
  0
POLYLINE
  5
12F
  8
0
  6
CONTINUOUS
 62
     7
 66
     1
 10
0.0
 20
0.0
 30
0.0
  0
VERTEX
  5
48A
  8
0
  6
CONTINUOUS
 62
     7
 10
129.0716927894
 20
391.8660726011
 30
0.0
  0
VERTEX
  5
48B
  8
0
  6
CONTINUOUS
 62
     7
 10
129.085662628
 20
391.6065781339
 30
0.0
  0
VERTEX
  5
48C
  8
0
  6
CONTINUOUS
 62
     7
 10
129.0802833088
 20
391.555392878
 30
0.0
  0
SEQEND
  5
48D
  8
0
  6
CONTINUOUS
 62
     7
  0
ARC
  5
130
  8
0
  6
CONTINUOUS
 62
     7
 10
152.7476473102
 20
357.4817286384
 30
0.0
 40
2.361063102540562
 50
17.9515672268
 51
83.6787618416
  0
LINE
  5
131
  8
0
  6
CONTINUOUS
 62
     7
 10
155.0031330832
 20
358.2120093013
 30
0.0
 11
156.0916927107
 21
355.2212195898
 31
0.0
  0
ARC
  5
132
  8
0
  6
CONTINUOUS
 62
     7
 10
157.0313852148
 20
355.5632396544
 30
0.0
 40
1.0
 50
200.0
 51
270.0
  0
LINE
  5
133
  8
0
  6
CONTINUOUS
 62
     7
 10
209.081177453
 20
401.3238029982
 30
0.0
 11
209.081177453
 21
423.8238038923
 31
0.0
  0
LINE
  5
134
  8
0
  6
CONTINUOUS
 62
     7
 10
209.081177453
 20
360.8857395555
 30
0.0
 11
209.081177453
 21
401.3238029982
 31
0.0
  0
LINE
  5
135
  8
0
  6
CONTINUOUS
 62
     7
 10
209.081177453
 20
353.3857392575
 30
0.0
 11
209.081177453
 21
360.8857395555
 31
0.0
  0
POLYLINE
  5
136
  8
0
  6
CONTINUOUS
 62
     7
 66
     1
 10
0.0
 20
0.0
 30
0.0
  0
VERTEX
  5
48E
  8
0
  6
CONTINUOUS
 62
     7
 10
199.0811776765
 20
354.5632401909
 30
0.0
  0
VERTEX
  5
48F
  8
0
  6
CONTINUOUS
 62
     7
 10
199.0814454824
 20
354.6675408686
 30
0.0
  0
VERTEX
  5
490
  8
0
  6
CONTINUOUS
 62
     7
 10
199.0813090305
 20
354.9912648703
 30
0.0
  0
VERTEX
  5
491
  8
0
  6
CONTINUOUS
 62
     7
 10
199.0814978021
 20
355.4474564697
 30
0.0
  0
VERTEX
  5
492
  8
0
  6
CONTINUOUS
 62
     7
 10
199.0811776765
 20
356.0727315451
 30
0.0
  0
SEQEND
  5
493
  8
0
  6
CONTINUOUS
 62
     7
  0
POLYLINE
  5
137
  8
0
  6
CONTINUOUS
 62
     7
 66
     1
 10
0.0
 20
0.0
 30
0.0
  0
VERTEX
  5
494
  8
0
  6
CONTINUOUS
 62
     7
 10
199.0811776765
 20
356.0727315451
 30
0.0
  0
VERTEX
  5
495
  8
0
  6
CONTINUOUS
 62
     7
 10
199.0789928017
 20
356.7226158882
 30
0.0
  0
VERTEX
  5
496
  8
0
  6
CONTINUOUS
 62
     7
 10
199.0811776765
 20
357.4814202691
 30
0.0
  0
SEQEND
  5
497
  8
0
  6
CONTINUOUS
 62
     7
  0
LINE
  5
138
  8
0
  6
CONTINUOUS
 62
     7
 10
199.0811776765
 20
357.4814202691
 30
0.0
 11
199.0811776765
 21
361.9670181031
 31
0.0
  0
LINE
  5
139
  8
0
  6
CONTINUOUS
 62
     7
 10
199.0811776765
 20
361.9670181031
 30
0.0
 11
199.0811776765
 21
391.0632396544
 31
0.0
  0
LINE
  5
13A
  8
0
  6
CONTINUOUS
 62
     7
 10
199.0811776765
 20
391.0632396544
 30
0.0
 11
199.0811776765
 21
402.0632395948
 31
0.0
  0
LINE
  5
13B
  8
0
  6
CONTINUOUS
 62
     7
 10
199.0811776765
 20
402.0632395948
 30
0.0
 11
199.0811776765
 21
422.0632391478
 31
0.0
  0
ARC
  5
13C
  8
0
  6
CONTINUOUS
 62
     7
 10
118.9361759741
 20
475.0519651293
 30
0.0
 40
113.5379878012857
 50
282.1658314933
 51
283.4272430033
  0
POLYLINE
  5
13D
  8
0
  6
CONTINUOUS
 62
     7
 66
     1
 10
0.0
 20
0.0
 30
0.0
  0
VERTEX
  5
498
  8
0
  6
CONTINUOUS
 62
     7
 10
136.7611539014
 20
373.0632404293
 30
0.0
  0
VERTEX
  5
499
  8
0
  6
CONTINUOUS
 62
     7
 10
137.3686258145
 20
372.8976475502
 30
0.0
  0
VERTEX
  5
49A
  8
0
  6
CONTINUOUS
 62
     7
 10
137.9015844711
 20
372.6090921516
 30
0.0
  0
VERTEX
  5
49B
  8
0
  6
CONTINUOUS
 62
     7
 10
138.4894241043
 20
372.2128944899
 30
0.0
  0
VERTEX
  5
49C
  8
0
  6
CONTINUOUS
 62
     7
 10
139.3084142753
 20
371.5758940632
 30
0.0
  0
VERTEX
  5
49D
  8
0
  6
CONTINUOUS
 62
     7
 10
140.1674066135
 20
370.8381059076
 30
0.0
  0
VERTEX
  5
49E
  8
0
  6
CONTINUOUS
 62
     7
 10
141.0619605728
 20
370.0183446015
 30
0.0
  0
VERTEX
  5
49F
  8
0
  6
CONTINUOUS
 62
     7
 10
141.9626612612
 20
369.1526541914
 30
0.0
  0
VERTEX
  5
4A0
  8
0
  6
CONTINUOUS
 62
     7
 10
142.9835696169
 20
368.1286389436
 30
0.0
  0
VERTEX
  5
4A1
  8
0
  6
CONTINUOUS
 62
     7
 10
143.9517055102
 20
367.102958491
 30
0.0
  0
VERTEX
  5
4A2
  8
0
  6
CONTINUOUS
 62
     7
 10
144.8425155529
 20
366.0671433861
 30
0.0
  0
VERTEX
  5
4A3
  8
0
  6
CONTINUOUS
 62
     7
 10
145.3361127921
 20
365.3628977443
 30
0.0
  0
VERTEX
  5
4A4
  8
0
  6
CONTINUOUS
 62
     7
 10
145.5097187706
 20
364.9350481535
 30
0.0
  0
VERTEX
  5
4A5
  8
0
  6
CONTINUOUS
 62
     7
 10
145.4300273605
 20
364.6747341807
 30
0.0
  0
VERTEX
  5
4A6
  8
0
  6
CONTINUOUS
 62
     7
 10
145.3008789965
 20
364.6174727435
 30
0.0
  0
SEQEND
  5
4A7
  8
0
  6
CONTINUOUS
 62
     7
  0
LINE
  5
13E
  8
0
  6
CONTINUOUS
 62
     7
 10
136.7611539014
 20
373.0632404293
 30
0.0
 11
134.2091735848
 21
373.0632404293
 31
0.0
  0
LINE
  5
13F
  8
0
  6
CONTINUOUS
 62
     7
 10
129.0811773785
 20
391.0632396544
 30
0.0
 11
130.7637345441
 21
391.0632396544
 31
0.0
  0
LINE
  5
140
  8
0
  6
CONTINUOUS
 62
     7
 10
130.7637345441
 20
391.0632396544
 30
0.0
 11
151.5811782726
 21
391.0632396544
 31
0.0
  0
LINE
  5
141
  8
0
  6
CONTINUOUS
 62
     7
 10
151.5811782726
 20
391.0632396544
 30
0.0
 11
199.0811776765
 21
391.0632396544
 31
0.0
  0
ARC
  5
142
  8
0
  6
CONTINUOUS
 62
     7
 10
151.8785137594
 20
278.5890776764
 30
0.0
 40
81.23556044218967
 50
81.8405520419
 51
87.5893731317
  0
POLYLINE
  5
143
  8
0
  6
CONTINUOUS
 62
     7
 66
     1
 10
0.0
 20
0.0
 30
0.0
  0
VERTEX
  5
4A8
  8
0
  6
CONTINUOUS
 62
     7
 10
132.1788829216
 20
378.3652747477
 30
0.0
  0
VERTEX
  5
4A9
  8
0
  6
CONTINUOUS
 62
     7
 10
131.838592554
 20
378.1766511927
 30
0.0
  0
VERTEX
  5
4AA
  8
0
  6
CONTINUOUS
 62
     7
 10
131.6538852104
 20
378.0780166815
 30
0.0
  0
VERTEX
  5
4AB
  8
0
  6
CONTINUOUS
 62
     7
 10
131.6750076064
 20
378.0891217719
 30
0.0
  0
SEQEND
  5
4AC
  8
0
  6
CONTINUOUS
 62
     7
  0
POLYLINE
  5
144
  8
0
  6
CONTINUOUS
 62
     7
 66
     1
 10
0.0
 20
0.0
 30
0.0
  0
VERTEX
  5
4AD
  8
0
  6
CONTINUOUS
 62
     7
 10
131.7551386007
 20
380.8552066292
 30
0.0
  0
VERTEX
  5
4AE
  8
0
  6
CONTINUOUS
 62
     7
 10
132.0125114568
 20
380.0251085739
 30
0.0
  0
VERTEX
  5
4AF
  8
0
  6
CONTINUOUS
 62
     7
 10
132.192323769
 20
379.2719759474
 30
0.0
  0
VERTEX
  5
4B0
  8
0
  6
CONTINUOUS
 62
     7
 10
132.2622027644
 20
378.7246339451
 30
0.0
  0
VERTEX
  5
4B1
  8
0
  6
CONTINUOUS
 62
     7
 10
132.2268125065
 20
378.4230148847
 30
0.0
  0
VERTEX
  5
4B2
  8
0
  6
CONTINUOUS
 62
     7
 10
132.1788829216
 20
378.3652747477
 30
0.0
  0
SEQEND
  5
4B3
  8
0
  6
CONTINUOUS
 62
     7
  0
POLYLINE
  5
145
  8
0
  6
CONTINUOUS
 62
     7
 66
     1
 10
0.0
 20
0.0
 30
0.0
  0
VERTEX
  5
4B4
  8
0
  6
CONTINUOUS
 62
     7
 10
130.498776997
 20
385.5632396842
 30
0.0
  0
VERTEX
  5
4B5
  8
0
  6
CONTINUOUS
 62
     7
 10
131.0476389178
 20
383.1935536544
 30
0.0
  0
VERTEX
  5
4B6
  8
0
  6
CONTINUOUS
 62
     7
 10
131.7551386007
 20
380.8552066292
 30
0.0
  0
SEQEND
  5
4B7
  8
0
  6
CONTINUOUS
 62
     7
  0
POLYLINE
  5
146
  8
0
  6
CONTINUOUS
 62
     7
 66
     1
 10
0.0
 20
0.0
 30
0.0
  0
VERTEX
  5
4B8
  8
0
  6
CONTINUOUS
 62
     7
 10
129.6702053794
 20
388.0632396284
 30
0.0
  0
VERTEX
  5
4B9
  8
0
  6
CONTINUOUS
 62
     7
 10
129.8127051838
 20
387.9197768363
 30
0.0
  0
VERTEX
  5
4BA
  8
0
  6
CONTINUOUS
 62
     7
 10
129.9897607812
 20
387.5103765129
 30
0.0
  0
VERTEX
  5
4BB
  8
0
  6
CONTINUOUS
 62
     7
 10
130.1891308673
 20
386.8736855182
 30
0.0
  0
VERTEX
  5
4BC
  8
0
  6
CONTINUOUS
 62
     7
 10
130.3905051597
 20
386.0734181906
 30
0.0
  0
VERTEX
  5
4BD
  8
0
  6
CONTINUOUS
 62
     7
 10
130.498776997
 20
385.5632396842
 30
0.0
  0
SEQEND
  5
4BE
  8
0
  6
CONTINUOUS
 62
     7
  0
LINE
  5
147
  8
0
  6
CONTINUOUS
 62
     7
 10
129.2455893406
 20
388.0632396284
 30
0.0
 11
129.6702053794
 21
388.0632396284
 31
0.0
  0
POLYLINE
  5
148
  8
0
  6
CONTINUOUS
 62
     7
 66
     1
 10
0.0
 20
0.0
 30
0.0
  0
VERTEX
  5
4BF
  8
0
  6
CONTINUOUS
 62
     7
 10
142.167146171
 20
411.1251851971
 30
0.0
  0
VERTEX
  5
4C0
  8
0
  6
CONTINUOUS
 62
     7
 10
142.1671163686
 20
411.1251796092
 30
0.0
  0
VERTEX
  5
4C1
  8
0
  6
CONTINUOUS
 62
     7
 10
141.0902802297
 20
410.8320085759
 30
0.0
  0
VERTEX
  5
4C2
  8
0
  6
CONTINUOUS
 62
     7
 10
140.0852341601
 20
410.393866008
 30
0.0
  0
VERTEX
  5
4C3
  8
0
  6
CONTINUOUS
 62
     7
 10
138.8811048516
 20
409.6294979061
 30
0.0
  0
VERTEX
  5
4C4
  8
0
  6
CONTINUOUS
 62
     7
 10
137.8059786209
 20
408.7033963258
 30
0.0
  0
VERTEX
  5
4C5
  8
0
  6
CONTINUOUS
 62
     7
 10
136.8387032696
 20
407.6586535628
 30
0.0
  0
VERTEX
  5
4C6
  8
0
  6
CONTINUOUS
 62
     7
 10
135.4802277335
 20
405.8431202973
 30
0.0
  0
VERTEX
  5
4C7
  8
0
  6
CONTINUOUS
 62
     7
 10
134.271594549
 20
403.8636435251
 30
0.0
  0
VERTEX
  5
4C8
  8
0
  6
CONTINUOUS
 62
     7
 10
133.3829712518
 20
402.1794472317
 30
0.0
  0
VERTEX
  5
4C9
  8
0
  6
CONTINUOUS
 62
     7
 10
132.5718563446
 20
400.457104897
 30
0.0
  0
VERTEX
  5
4CA
  8
0
  6
CONTINUOUS
 62
     7
 10
131.8463709601
 20
398.7466914075
 30
0.0
  0
VERTEX
  5
4CB
  8
0
  6
CONTINUOUS
 62
     7
 10
131.1701041111
 20
396.9776865522
 30
0.0
  0
SEQEND
  5
4CC
  8
0
  6
CONTINUOUS
 62
     7
  0
ARC
  5
149
  8
0
  6
CONTINUOUS
 62
     7
 10
128.3552000546
 20
395.3738651046
 30
0.0
 40
3.239741977792872
 50
29.6727865339
 51
77.0509259518
  0
LINE
  5
14A
  8
0
  6
CONTINUOUS
 62
     7
 10
129.0811773785
 20
414.3132402058
 30
0.0
 11
129.0811773785
 21
398.5312192197
 31
0.0
  0
LINE
  5
14B
  8
0
  6
CONTINUOUS
 62
     7
 10
129.0811773785
 20
398.5312192197
 30
0.0
 11
129.0811773785
 21
391.8132799989
 31
0.0
  0
ARC
  5
14C
  8
0
  6
CONTINUOUS
 62
     7
 10
172.1742289086
 20
356.3871531051
 30
0.0
 40
9.147849751140605
 50
163.3889048841
 51
173.7254048094
  0
POLYLINE
  5
14D
  8
0
  6
CONTINUOUS
 62
     7
 66
     1
 10
0.0
 20
0.0
 30
0.0
  0
VERTEX
  5
4CD
  8
0
  6
CONTINUOUS
 62
     7
 10
179.8186179646
 20
355.2212195898
 30
0.0
  0
VERTEX
  5
4CE
  8
0
  6
CONTINUOUS
 62
     7
 10
180.4371726163
 20
355.1995905544
 30
0.0
  0
VERTEX
  5
4CF
  8
0
  6
CONTINUOUS
 62
     7
 10
185.1507582166
 20
355.0363148059
 30
0.0
  0
VERTEX
  5
4D0
  8
0
  6
CONTINUOUS
 62
     7
 10
189.8633733787
 20
354.8755722548
 30
0.0
  0
VERTEX
  5
4D1
  8
0
  6
CONTINUOUS
 62
     7
 10
194.5636452571
 20
354.7174597586
 30
0.0
  0
VERTEX
  5
4D2
  8
0
  6
CONTINUOUS
 62
     7
 10
196.31153377
 20
354.6591850425
 30
0.0
  0
VERTEX
  5
4D3
  8
0
  6
CONTINUOUS
 62
     7
 10
198.0318594421
 20
354.6022439803
 30
0.0
  0
VERTEX
  5
4D4
  8
0
  6
CONTINUOUS
 62
     7
 10
198.7497108918
 20
354.5787224973
 30
0.0
  0
VERTEX
  5
4D5
  8
0
  6
CONTINUOUS
 62
     7
 10
198.8759872026
 20
354.5746395792
 30
0.0
  0
VERTEX
  5
4D6
  8
0
  6
CONTINUOUS
 62
     7
 10
198.9670974569
 20
354.571737578
 30
0.0
  0
VERTEX
  5
4D7
  8
0
  6
CONTINUOUS
 62
     7
 10
198.9761940483
 20
354.571454456
 30
0.0
  0
VERTEX
  5
4D8
  8
0
  6
CONTINUOUS
 62
     7
 10
199.0184685989
 20
354.5701804067
 30
0.0
  0
VERTEX
  5
4D9
  8
0
  6
CONTINUOUS
 62
     7
 10
199.0229072532
 20
354.5701021756
 30
0.0
  0
SEQEND
  5
4DA
  8
0
  6
CONTINUOUS
 62
     7
  0
POLYLINE
  5
14E
  8
0
  6
CONTINUOUS
 62
     7
 66
     1
 10
0.0
 20
0.0
 30
0.0
  0
VERTEX
  5
4DB
  8
0
  6
CONTINUOUS
 62
     7
 10
179.8186179646
 20
355.2212195898
 30
0.0
  0
VERTEX
  5
4DC
  8
0
  6
CONTINUOUS
 62
     7
 10
175.0459287711
 20
355.8192367162
 30
0.0
  0
VERTEX
  5
4DD
  8
0
  6
CONTINUOUS
 62
     7
 10
163.0811792263
 20
357.3869543577
 30
0.0
  0
SEQEND
  5
4DE
  8
0
  6
CONTINUOUS
 62
     7
  0
LINE
  5
14F
  8
0
  6
CONTINUOUS
 62
     7
 10
199.0811776765
 20
354.5632401909
 30
0.0
 11
179.8186179646
 21
354.5632401909
 31
0.0
  0
LINE
  5
150
  8
0
  6
CONTINUOUS
 62
     7
 10
179.8186179646
 20
354.5632401909
 30
0.0
 11
179.8186179646
 21
355.2212195898
 31
0.0
  0
LINE
  5
151
  8
0
  6
CONTINUOUS
 62
     7
 10
163.0811792263
 20
357.3869543577
 30
0.0
 11
163.0811792263
 21
355.2212195898
 31
0.0
  0
LINE
  5
152
  8
0
  6
CONTINUOUS
 62
     7
 10
163.0811792263
 20
355.2212195898
 30
0.0
 11
179.8186179646
 21
355.2212195898
 31
0.0
  0
LINE
  5
153
  8
0
  6
CONTINUOUS
 62
     7
 10
163.0811792263
 20
354.5632401909
 30
0.0
 11
163.0811792263
 21
355.2212195898
 31
0.0
  0
LINE
  5
154
  8
0
  6
CONTINUOUS
 62
     7
 10
179.8186179646
 20
354.5632401909
 30
0.0
 11
163.0811792263
 21
354.5632401909
 31
0.0
  0
LINE
  5
155
  8
0
  6
CONTINUOUS
 62
     7
 10
163.0811792263
 20
354.5632401909
 30
0.0
 11
157.0313860127
 21
354.5632401909
 31
0.0
  0
POLYLINE
  5
156
  8
0
  6
CONTINUOUS
 62
     8
 66
     1
 10
0.0
 20
0.0
 30
0.0
  0
VERTEX
  5
4DF
  8
0
  6
CONTINUOUS
 62
     8
 10
153.1236607977
 20
359.816191947
 30
0.0
  0
VERTEX
  5
4E0
  8
0
  6
CONTINUOUS
 62
     8
 10
153.1163145252
 20
359.8163595851
 30
0.0
  0
VERTEX
  5
4E1
  8
0
  6
CONTINUOUS
 62
     8
 10
153.2729406305
 20
359.8126808609
 30
0.0
  0
VERTEX
  5
4E2
  8
0
  6
CONTINUOUS
 62
     8
 10
153.6835421272
 20
359.8005289639
 30
0.0
  0
VERTEX
  5
4E3
  8
0
  6
CONTINUOUS
 62
     8
 10
154.3565046438
 20
359.779138347
 30
0.0
  0
VERTEX
  5
4E4
  8
0
  6
CONTINUOUS
 62
     8
 10
155.2953411289
 20
359.7527483906
 30
0.0
  0
VERTEX
  5
4E5
  8
0
  6
CONTINUOUS
 62
     8
 10
155.2953597554
 20
359.7527483906
 30
0.0
  0
VERTEX
  5
4E6
  8
0
  6
CONTINUOUS
 62
     8
 10
155.2953597554
 20
359.7527483906
 30
0.0
  0
SEQEND
  5
4E7
  8
0
  6
CONTINUOUS
 62
     8
  0
POLYLINE
  5
157
  8
0
  6
CONTINUOUS
 62
     8
 66
     1
 10
0.0
 20
0.0
 30
0.0
  0
VERTEX
  5
4E8
  8
0
  6
CONTINUOUS
 62
     8
 10
163.4081442305
 20
359.0022849346
 30
0.0
  0
VERTEX
  5
4E9
  8
0
  6
CONTINUOUS
 62
     8
 10
175.3551241406
 20
357.4429007675
 30
0.0
  0
VERTEX
  5
4EA
  8
0
  6
CONTINUOUS
 62
     8
 10
198.6246630247
 20
354.6184378172
 30
0.0
  0
SEQEND
  5
4EB
  8
0
  6
CONTINUOUS
 62
     8
  0
POLYLINE
  5
158
  8
0
  6
CONTINUOUS
 62
     8
 66
     1
 10
0.0
 20
0.0
 30
0.0
  0
VERTEX
  5
4EC
  8
0
  6
CONTINUOUS
 62
     8
 10
196.9953038194
 20
421.6960000302
 30
0.0
  0
VERTEX
  5
4ED
  8
0
  6
CONTINUOUS
 62
     8
 10
197.0024601021
 20
421.6972666289
 30
0.0
  0
VERTEX
  5
4EE
  8
0
  6
CONTINUOUS
 62
     8
 10
196.9033555058
 20
421.6797223742
 30
0.0
  0
VERTEX
  5
4EF
  8
0
  6
CONTINUOUS
 62
     8
 10
196.5536443447
 20
421.6177391316
 30
0.0
  0
VERTEX
  5
4F0
  8
0
  6
CONTINUOUS
 62
     8
 10
196.1077480507
 20
421.5385506357
 30
0.0
  0
VERTEX
  5
4F1
  8
0
  6
CONTINUOUS
 62
     8
 10
195.5911732209
 20
421.446589982
 30
0.0
  0
VERTEX
  5
4F2
  8
0
  6
CONTINUOUS
 62
     8
 10
194.3977264152
 20
421.2332183923
 30
0.0
  0
VERTEX
  5
4F3
  8
0
  6
CONTINUOUS
 62
     8
 10
193.132976389
 20
421.0057670678
 30
0.0
  0
VERTEX
  5
4F4
  8
0
  6
CONTINUOUS
 62
     8
 10
190.452073554
 20
420.5191268082
 30
0.0
  0
VERTEX
  5
4F5
  8
0
  6
CONTINUOUS
 62
     8
 10
186.9101383188
 20
419.8671991433
 30
0.0
  0
VERTEX
  5
4F6
  8
0
  6
CONTINUOUS
 62
     8
 10
183.3192155161
 20
419.1966301258
 30
0.0
  0
VERTEX
  5
4F7
  8
0
  6
CONTINUOUS
 62
     8
 10
179.7040578374
 20
418.5125681068
 30
0.0
  0
VERTEX
  5
4F8
  8
0
  6
CONTINUOUS
 62
     8
 10
174.206032271
 20
417.4567966218
 30
0.0
  0
VERTEX
  5
4F9
  8
0
  6
CONTINUOUS
 62
     8
 10
168.686856369
 20
416.381508341
 30
0.0
  0
VERTEX
  5
4FA
  8
0
  6
CONTINUOUS
 62
     8
 10
157.7418957301
 20
414.2182676549
 30
0.0
  0
VERTEX
  5
4FB
  8
0
  6
CONTINUOUS
 62
     8
 10
146.750098879
 20
412.0322579945
 30
0.0
  0
VERTEX
  5
4FC
  8
0
  6
CONTINUOUS
 62
     8
 10
142.1671759733
 20
411.1251926477
 30
0.0
  0
VERTEX
  5
4FD
  8
0
  6
CONTINUOUS
 62
     8
 10
142.167146171
 20
411.1251851971
 30
0.0
  0
VERTEX
  5
4FE
  8
0
  6
CONTINUOUS
 62
     8
 10
142.167146171
 20
411.1251851971
 30
0.0
  0
SEQEND
  5
4FF
  8
0
  6
CONTINUOUS
 62
     8
  0
POLYLINE
  5
159
  8
0
  6
CONTINUOUS
 62
     8
 66
     1
 10
0.0
 20
0.0
 30
0.0
  0
VERTEX
  5
500
  8
0
  6
CONTINUOUS
 62
     8
 10
131.1701041111
 20
396.9776865522
 30
0.0
  0
VERTEX
  5
501
  8
0
  6
CONTINUOUS
 62
     8
 10
130.826766456
 20
396.0234636868
 30
0.0
  0
VERTEX
  5
502
  8
0
  6
CONTINUOUS
 62
     8
 10
130.5087384232
 20
395.1273302044
 30
0.0
  0
VERTEX
  5
503
  8
0
  6
CONTINUOUS
 62
     8
 10
130.1039707311
 20
393.9703085887
 30
0.0
  0
VERTEX
  5
504
  8
0
  6
CONTINUOUS
 62
     8
 10
129.763725067
 20
392.9943875371
 30
0.0
  0
VERTEX
  5
505
  8
0
  6
CONTINUOUS
 62
     8
 10
129.501375223
 20
392.263742742
 30
0.0
  0
VERTEX
  5
506
  8
0
  6
CONTINUOUS
 62
     8
 10
129.3022733577
 20
391.7653784118
 30
0.0
  0
VERTEX
  5
507
  8
0
  6
CONTINUOUS
 62
     8
 10
129.1641619452
 20
391.5309963593
 30
0.0
  0
VERTEX
  5
508
  8
0
  6
CONTINUOUS
 62
     8
 10
129.0953334817
 20
391.5559521372
 30
0.0
  0
VERTEX
  5
509
  8
0
  6
CONTINUOUS
 62
     8
 10
129.0930983075
 20
391.5540527631
 30
0.0
  0
SEQEND
  5
50A
  8
0
  6
CONTINUOUS
 62
     8
  0
POLYLINE
  5
15A
  8
0
  6
CONTINUOUS
 62
     8
 66
     1
 10
0.0
 20
0.0
 30
0.0
  0
VERTEX
  5
50B
  8
0
  6
CONTINUOUS
 62
     8
 10
129.0811773785
 20
398.5312192197
 30
0.0
  0
VERTEX
  5
50C
  8
0
  6
CONTINUOUS
 62
     8
 10
129.8170488723
 20
400.1080554406
 30
0.0
  0
VERTEX
  5
50D
  8
0
  6
CONTINUOUS
 62
     8
 10
130.623715783
 20
401.6627895142
 30
0.0
  0
VERTEX
  5
50E
  8
0
  6
CONTINUOUS
 62
     8
 10
131.5193724283
 20
403.2166863288
 30
0.0
  0
VERTEX
  5
50F
  8
0
  6
CONTINUOUS
 62
     8
 10
132.4928503879
 20
404.7269730325
 30
0.0
  0
VERTEX
  5
510
  8
0
  6
CONTINUOUS
 62
     8
 10
133.8827263959
 20
406.5903054978
 30
0.0
  0
VERTEX
  5
511
  8
0
  6
CONTINUOUS
 62
     8
 10
135.4248028644
 20
408.2818927671
 30
0.0
  0
VERTEX
  5
512
  8
0
  6
CONTINUOUS
 62
     8
 10
136.6254154988
 20
409.3432056214
 30
0.0
  0
VERTEX
  5
513
  8
0
  6
CONTINUOUS
 62
     8
 10
137.9348438629
 20
410.267656898
 30
0.0
  0
VERTEX
  5
514
  8
0
  6
CONTINUOUS
 62
     8
 10
139.3553417572
 20
411.0215029175
 30
0.0
  0
VERTEX
  5
515
  8
0
  6
CONTINUOUS
 62
     8
 10
141.068956668
 20
411.6276318635
 30
0.0
  0
VERTEX
  5
516
  8
0
  6
CONTINUOUS
 62
     8
 10
142.872529889
 20
412.0378254409
 30
0.0
  0
VERTEX
  5
517
  8
0
  6
CONTINUOUS
 62
     8
 10
144.7176289209
 20
412.3462850655
 30
0.0
  0
VERTEX
  5
518
  8
0
  6
CONTINUOUS
 62
     8
 10
146.5558324405
 20
412.6472140158
 30
0.0
  0
VERTEX
  5
519
  8
0
  6
CONTINUOUS
 62
     8
 10
157.5417917617
 20
414.6493023689
 30
0.0
  0
VERTEX
  5
51A
  8
0
  6
CONTINUOUS
 62
     8
 10
168.4992842772
 20
416.657038262
 30
0.0
  0
VERTEX
  5
51B
  8
0
  6
CONTINUOUS
 62
     8
 10
173.9922415861
 20
417.6564274783
 30
0.0
  0
VERTEX
  5
51C
  8
0
  6
CONTINUOUS
 62
     8
 10
179.4744141795
 20
418.6442813332
 30
0.0
  0
VERTEX
  5
51D
  8
0
  6
CONTINUOUS
 62
     8
 10
184.9146446609
 20
419.6121247913
 30
0.0
  0
VERTEX
  5
51E
  8
0
  6
CONTINUOUS
 62
     8
 10
190.2817802899
 20
420.5514809544
 30
0.0
  0
VERTEX
  5
51F
  8
0
  6
CONTINUOUS
 62
     8
 10
192.0547516481
 20
420.857783636
 30
0.0
  0
VERTEX
  5
520
  8
0
  6
CONTINUOUS
 62
     8
 10
193.7903555506
 20
421.1556876506
 30
0.0
  0
VERTEX
  5
521
  8
0
  6
CONTINUOUS
 62
     8
 10
195.4261861672
 20
421.434648564
 30
0.0
  0
VERTEX
  5
522
  8
0
  6
CONTINUOUS
 62
     8
 10
196.3896857039
 20
421.5980546976
 30
0.0
  0
VERTEX
  5
523
  8
0
  6
CONTINUOUS
 62
     8
 10
196.739772188
 20
421.6572663243
 30
0.0
  0
VERTEX
  5
524
  8
0
  6
CONTINUOUS
 62
     8
 10
196.8389831879
 20
421.6740319933
 30
0.0
  0
VERTEX
  5
525
  8
0
  6
CONTINUOUS
 62
     8
 10
196.8326597404
 20
421.672962835
 30
0.0
  0
SEQEND
  5
526
  8
0
  6
CONTINUOUS
 62
     8
  0
POLYLINE
  5
15B
  8
0
  6
CONTINUOUS
 62
     8
 66
     1
 10
0.0
 20
0.0
 30
0.0
  0
VERTEX
  5
527
  8
0
  6
CONTINUOUS
 62
     8
 10
163.0811792263
 20
357.3869543577
 30
0.0
  0
VERTEX
  5
528
  8
0
  6
CONTINUOUS
 62
     8
 10
162.9227910586
 20
357.414920112
 30
0.0
  0
VERTEX
  5
529
  8
0
  6
CONTINUOUS
 62
     8
 10
162.2870479175
 20
357.5237283911
 30
0.0
  0
VERTEX
  5
52A
  8
0
  6
CONTINUOUS
 62
     8
 10
161.0203188308
 20
357.721824428
 30
0.0
  0
VERTEX
  5
52B
  8
0
  6
CONTINUOUS
 62
     8
 10
159.7950932034
 20
357.8861581589
 30
0.0
  0
VERTEX
  5
52C
  8
0
  6
CONTINUOUS
 62
     8
 10
158.6489666649
 20
358.0097483898
 30
0.0
  0
VERTEX
  5
52D
  8
0
  6
CONTINUOUS
 62
     8
 10
157.6168489107
 20
358.092431208
 30
0.0
  0
VERTEX
  5
52E
  8
0
  6
CONTINUOUS
 62
     8
 10
156.7463118979
 20
358.1379840578
 30
0.0
  0
VERTEX
  5
52F
  8
0
  6
CONTINUOUS
 62
     8
 10
156.0345802852
 20
358.1677491273
 30
0.0
  0
VERTEX
  5
530
  8
0
  6
CONTINUOUS
 62
     8
 10
155.4804210015
 20
358.1941092814
 30
0.0
  0
VERTEX
  5
531
  8
0
  6
CONTINUOUS
 62
     8
 10
155.1326055475
 20
358.2099119629
 30
0.0
  0
VERTEX
  5
532
  8
0
  6
CONTINUOUS
 62
     8
 10
155.003464634
 20
358.2150305117
 30
0.0
  0
VERTEX
  5
533
  8
0
  6
CONTINUOUS
 62
     8
 10
155.0107364007
 20
358.2147399391
 30
0.0
  0
SEQEND
  5
534
  8
0
  6
CONTINUOUS
 62
     8
  0
LINE
  5
15C
  8
0
  6
CONTINUOUS
 62
     8
 10
156.0916927107
 20
355.2212195898
 30
0.0
 11
163.0811792263
 21
355.2212195898
 31
0.0
  0
LINE
  5
15D
  8
0
  6
CENTER
 62
     7
 10
134.0811776765
 20
428.4609836589
 30
0.0
 11
134.0811776765
 21
350.8598787441
 31
0.0
  0
LINE
  5
15E
  8
0
  6
CONTINUOUS
 62
     7
 10
122.0811776765
 20
426.4609836589
 30
0.0
 11
134.0811776765
 21
426.4609836589
 31
0.0
  0
SOLID
  5
15F
  8
0
  6
CONTINUOUS
 62
     7
 10
134.0811776765
 20
426.4609836589
 30
0.0
 11
128.0811776765
 21
427.9609836589
 31
0.0
 12
128.0811776765
 22
424.9609836589
 32
0.0
 13
128.0811776765
 23
424.9609836589
 33
0.0
  0
LINE
  5
160
  8
0
  6
CONTINUOUS
 62
     7
 10
122.0811776765
 20
352.8598787441
 30
0.0
 11
134.0811776765
 21
352.8598787441
 31
0.0
  0
SOLID
  5
161
  8
0
  6
CONTINUOUS
 62
     7
 10
134.0811776765
 20
352.8598787441
 30
0.0
 11
128.0811776765
 21
354.3598787441
 31
0.0
 12
128.0811776765
 22
351.3598787441
 32
0.0
 13
128.0811776765
 23
351.3598787441
 33
0.0
  0
TEXT
  5
162
  8
0
  6
CONTINUOUS
 62
     7
 10
122.0811776765
 20
430.1891818304
 30
0.0
 40
6.35
  1
A
 41
0.7
 11
122.0811776765
 21
436.5391818304
 31
0.0
 73
     3
  0
TEXT
  5
163
  8
0
  6
CONTINUOUS
 62
     7
 10
122.0811776765
 20
356.5880769156
 30
0.0
 40
6.35
  1
A
 41
0.7
 11
122.0811776765
 21
362.9380769156
 31
0.0
 73
     3
  0
LINE
  5
164
  8
0
  6
CENTER
 62
     7
 10
146.5811776765
 20
432.9570881001
 30
0.0
 11
146.5811776765
 21
344.6819427827
 31
0.0
  0
LINE
  5
165
  8
0
  6
CONTINUOUS
 62
     7
 10
134.5811776765
 20
430.9570881001
 30
0.0
 11
146.5811776765
 21
430.9570881001
 31
0.0
  0
SOLID
  5
166
  8
0
  6
CONTINUOUS
 62
     7
 10
146.5811776765
 20
430.9570881001
 30
0.0
 11
140.5811776765
 21
432.4570881001
 31
0.0
 12
140.5811776765
 22
429.4570881001
 32
0.0
 13
140.5811776765
 23
429.4570881001
 33
0.0
  0
LINE
  5
167
  8
0
  6
CONTINUOUS
 62
     7
 10
134.5811776765
 20
346.6819427827
 30
0.0
 11
146.5811776765
 21
346.6819427827
 31
0.0
  0
SOLID
  5
168
  8
0
  6
CONTINUOUS
 62
     7
 10
146.5811776765
 20
346.6819427827
 30
0.0
 11
140.5811776765
 21
348.1819427827
 31
0.0
 12
140.5811776765
 22
345.1819427827
 32
0.0
 13
140.5811776765
 23
345.1819427827
 33
0.0
  0
TEXT
  5
169
  8
0
  6
CONTINUOUS
 62
     7
 10
134.5811776765
 20
434.6852862716
 30
0.0
 40
6.35
  1
B
 41
0.7
 11
134.5811776765
 21
441.0352862716
 31
0.0
 73
     3
  0
TEXT
  5
16A
  8
0
  6
CONTINUOUS
 62
     7
 10
134.5811776765
 20
350.4101409543
 30
0.0
 40
6.35
  1
B
 41
0.7
 11
134.5811776765
 21
356.7601409543
 31
0.0
 73
     3
  0
LINE
  5
16B
  8
0
  6
CENTER
 62
     7
 10
159.0811776765
 20
439.4483988558
 30
0.0
 11
159.0811776765
 21
333.0078141361
 31
0.0
  0
LINE
  5
16C
  8
0
  6
CONTINUOUS
 62
     7
 10
147.0811776765
 20
437.4483988558
 30
0.0
 11
159.0811776765
 21
437.4483988558
 31
0.0
  0
SOLID
  5
16D
  8
0
  6
CONTINUOUS
 62
     7
 10
159.0811776765
 20
437.4483988558
 30
0.0
 11
153.0811776765
 21
438.9483988558
 31
0.0
 12
153.0811776765
 22
435.9483988558
 32
0.0
 13
153.0811776765
 23
435.9483988558
 33
0.0
  0
LINE
  5
16E
  8
0
  6
CONTINUOUS
 62
     7
 10
147.0811776765
 20
335.0078141361
 30
0.0
 11
159.0811776765
 21
335.0078141361
 31
0.0
  0
SOLID
  5
16F
  8
0
  6
CONTINUOUS
 62
     7
 10
159.0811776765
 20
335.0078141361
 30
0.0
 11
153.0811776765
 21
336.5078141361
 31
0.0
 12
153.0811776765
 22
333.5078141361
 32
0.0
 13
153.0811776765
 23
333.5078141361
 33
0.0
  0
TEXT
  5
170
  8
0
  6
CONTINUOUS
 62
     7
 10
147.0811776765
 20
441.1765970273
 30
0.0
 40
6.35
  1
C
 41
0.7
 11
147.0811776765
 21
447.5265970273
 31
0.0
 73
     3
  0
TEXT
  5
171
  8
0
  6
CONTINUOUS
 62
     7
 10
147.0811776765
 20
338.7360123076
 30
0.0
 40
6.35
  1
C
 41
0.7
 11
147.0811776765
 21
345.0860123076
 31
0.0
 73
     3
  0
LINE
  5
172
  8
0
  6
CENTER
 62
     7
 10
171.5811776765
 20
445.1710109375
 30
0.0
 11
171.5811776765
 21
326.3695841213
 31
0.0
  0
LINE
  5
173
  8
0
  6
CONTINUOUS
 62
     7
 10
159.5811776765
 20
443.1710109375
 30
0.0
 11
171.5811776765
 21
443.1710109375
 31
0.0
  0
SOLID
  5
174
  8
0
  6
CONTINUOUS
 62
     7
 10
171.5811776765
 20
443.1710109375
 30
0.0
 11
165.5811776765
 21
444.6710109375
 31
0.0
 12
165.5811776765
 22
441.6710109375
 32
0.0
 13
165.5811776765
 23
441.6710109375
 33
0.0
  0
LINE
  5
175
  8
0
  6
CONTINUOUS
 62
     7
 10
159.5811776765
 20
328.3695841213
 30
0.0
 11
171.5811776765
 21
328.3695841213
 31
0.0
  0
SOLID
  5
176
  8
0
  6
CONTINUOUS
 62
     7
 10
171.5811776765
 20
328.3695841213
 30
0.0
 11
165.5811776765
 21
329.8695841213
 31
0.0
 12
165.5811776765
 22
326.8695841213
 32
0.0
 13
165.5811776765
 23
326.8695841213
 33
0.0
  0
TEXT
  5
177
  8
0
  6
CONTINUOUS
 62
     7
 10
159.5811776765
 20
446.899209109
 30
0.0
 40
6.35
  1
D
 41
0.7
 11
159.5811776765
 21
453.249209109
 31
0.0
 73
     3
  0
TEXT
  5
178
  8
0
  6
CONTINUOUS
 62
     7
 10
159.5811776765
 20
332.0977822928
 30
0.0
 40
6.35
  1
D
 41
0.7
 11
159.5811776765
 21
338.4477822928
 31
0.0
 73
     3
  0
LINE
  5
179
  8
0
  6
CENTER
 62
     7
 10
184.0811776765
 20
450.8936230192
 30
0.0
 11
184.0811776765
 21
318.3579272069
 31
0.0
  0
LINE
  5
17A
  8
0
  6
CONTINUOUS
 62
     7
 10
172.0811776765
 20
448.8936230192
 30
0.0
 11
184.0811776765
 21
448.8936230192
 31
0.0
  0
SOLID
  5
17B
  8
0
  6
CONTINUOUS
 62
     7
 10
184.0811776765
 20
448.8936230192
 30
0.0
 11
178.0811776765
 21
450.3936230192
 31
0.0
 12
178.0811776765
 22
447.3936230192
 32
0.0
 13
178.0811776765
 23
447.3936230192
 33
0.0
  0
LINE
  5
17C
  8
0
  6
CONTINUOUS
 62
     7
 10
172.0811776765
 20
320.3579272069
 30
0.0
 11
184.0811776765
 21
320.3579272069
 31
0.0
  0
SOLID
  5
17D
  8
0
  6
CONTINUOUS
 62
     7
 10
184.0811776765
 20
320.3579272069
 30
0.0
 11
178.0811776765
 21
321.8579272069
 31
0.0
 12
178.0811776765
 22
318.8579272069
 32
0.0
 13
178.0811776765
 23
318.8579272069
 33
0.0
  0
TEXT
  5
17E
  8
0
  6
CONTINUOUS
 62
     7
 10
172.0811776765
 20
452.6218211907
 30
0.0
 40
6.35
  1
E
 41
0.7
 11
172.0811776765
 21
458.9718211907
 31
0.0
 73
     3
  0
TEXT
  5
17F
  8
0
  6
CONTINUOUS
 62
     7
 10
172.0811776765
 20
324.0861253784
 30
0.0
 40
6.35
  1
E
 41
0.7
 11
172.0811776765
 21
330.4361253784
 31
0.0
 73
     3
  0
LINE
  5
180
  8
0
  6
CENTER
 62
     7
 10
199.0811776765
 20
449.6787095484
 30
0.0
 11
199.0811776765
 21
321.9628559104
 31
0.0
  0
LINE
  5
181
  8
0
  6
CONTINUOUS
 62
     7
 10
187.0811776765
 20
447.6787095484
 30
0.0
 11
199.0811776765
 21
447.6787095484
 31
0.0
  0
SOLID
  5
182
  8
0
  6
CONTINUOUS
 62
     7
 10
199.0811776765
 20
447.6787095484
 30
0.0
 11
193.0811776765
 21
449.1787095484
 31
0.0
 12
193.0811776765
 22
446.1787095484
 32
0.0
 13
193.0811776765
 23
446.1787095484
 33
0.0
  0
LINE
  5
183
  8
0
  6
CONTINUOUS
 62
     7
 10
187.0811776765
 20
323.9628559104
 30
0.0
 11
199.0811776765
 21
323.9628559104
 31
0.0
  0
SOLID
  5
184
  8
0
  6
CONTINUOUS
 62
     7
 10
199.0811776765
 20
323.9628559104
 30
0.0
 11
193.0811776765
 21
325.4628559104
 31
0.0
 12
193.0811776765
 22
322.4628559104
 32
0.0
 13
193.0811776765
 23
322.4628559104
 33
0.0
  0
TEXT
  5
185
  8
0
  6
CONTINUOUS
 62
     7
 10
187.0811776765
 20
451.4069077199
 30
0.0
 40
6.35
  1
F
 41
0.7
 11
187.0811776765
 21
457.7569077199
 31
0.0
 73
     3
  0
TEXT
  5
186
  8
0
  6
CONTINUOUS
 62
     7
 10
187.0811776765
 20
327.6910540819
 30
0.0
 40
6.35
  1
F
 41
0.7
 11
187.0811776765
 21
334.0410540819
 31
0.0
 73
     3
  0
LINE
  5
187
  8
0
  6
CONTINUOUS
 62
     7
 10
260.0573868444
 20
406.8276754077
 30
0.0
 11
267.4691194156
 21
414.2394086773
 31
0.0
  0
LINE
  5
188
  8
0
  6
CONTINUOUS
 62
     7
 10
252.3707495024
 20
394.650909813
 30
0.0
 11
272.5072843209
 21
414.7874454464
 31
0.0
  0
LINE
  5
189
  8
0
  6
CONTINUOUS
 62
     7
 10
251.9207083574
 20
389.7107404153
 30
0.0
 11
276.0417590803
 21
413.8317911382
 31
0.0
  0
LINE
  5
18A
  8
0
  6
CONTINUOUS
 62
     7
 10
252.593376576
 20
385.8932817782
 30
0.0
 11
278.8050890854
 21
412.1049942876
 31
0.0
  0
LINE
  5
18B
  8
0
  6
CONTINUOUS
 62
     7
 10
253.8998731365
 20
382.7096496205
 30
0.0
 11
280.9447961813
 21
409.7545726652
 31
0.0
  0
LINE
  5
18C
  8
0
  6
CONTINUOUS
 62
     7
 10
255.8691826603
 20
380.1888304259
 30
0.0
 11
282.4382315343
 21
406.7578802313
 31
0.0
  0
LINE
  5
18D
  8
0
  6
CONTINUOUS
 62
     7
 10
258.3303497126
 20
378.1598696913
 30
0.0
 11
284.0480794152
 21
403.8775993939
 31
0.0
  0
LINE
  5
18E
  8
0
  6
CONTINUOUS
 62
     7
 10
260.9567864752
 20
376.2961777355
 30
0.0
 11
286.5037870547
 21
401.843178315
 31
0.0
  0
LINE
  5
18F
  8
0
  6
CONTINUOUS
 62
     7
 10
263.8994831545
 20
374.7487461622
 30
0.0
 11
288.349256753
 21
399.1985202263
 31
0.0
  0
LINE
  5
190
  8
0
  6
CONTINUOUS
 62
     7
 10
267.3357691569
 20
373.6949043776
 30
0.0
 11
289.6466133138
 21
396.0057499315
 31
0.0
  0
LINE
  5
191
  8
0
  6
CONTINUOUS
 62
     7
 10
271.4589595748
 20
373.3279670085
 30
0.0
 11
290.4761590948
 21
392.3451661793
 31
0.0
  0
LINE
  5
192
  8
0
  6
CONTINUOUS
 62
     7
 10
276.7078703223
 20
374.0867509003
 30
0.0
 11
290.2464390686
 21
387.6253194137
 31
0.0
  0
POLYLINE
  5
193
  8
0
  6
CONTINUOUS
 62
     7
 66
     1
 10
0.0
 20
0.0
 30
0.0
  0
VERTEX
  5
535
  8
0
  6
CONTINUOUS
 62
     7
 10
281.7296114704
 20
411.1251851971
 30
0.0
  0
VERTEX
  5
536
  8
0
  6
CONTINUOUS
 62
     7
 10
281.7296114704
 20
411.1251796092
 30
0.0
  0
VERTEX
  5
537
  8
0
  6
CONTINUOUS
 62
     7
 10
281.8207097193
 20
410.8320085759
 30
0.0
  0
VERTEX
  5
538
  8
0
  6
CONTINUOUS
 62
     7
 10
282.0623804769
 20
410.393866008
 30
0.0
  0
VERTEX
  5
539
  8
0
  6
CONTINUOUS
 62
     7
 10
282.5145757711
 20
409.6294979061
 30
0.0
  0
VERTEX
  5
53A
  8
0
  6
CONTINUOUS
 62
     7
 10
283.0218951171
 20
408.7033963258
 30
0.0
  0
VERTEX
  5
53B
  8
0
  6
CONTINUOUS
 62
     7
 10
283.5060655093
 20
407.6586535628
 30
0.0
  0
VERTEX
  5
53C
  8
0
  6
CONTINUOUS
 62
     7
 10
284.1013603797
 20
405.8431202973
 30
0.0
  0
VERTEX
  5
53D
  8
0
  6
CONTINUOUS
 62
     7
 10
284.4418751961
 20
403.8636435251
 30
0.0
  0
VERTEX
  5
53E
  8
0
  6
CONTINUOUS
 62
     7
 10
284.4692784315
 20
403.5196837465
 30
0.0
  0
SEQEND
  5
53F
  8
0
  6
CONTINUOUS
 62
     7
  0
POLYLINE
  5
194
  8
0
  6
CONTINUOUS
 62
     7
 66
     1
 10
0.0
 20
0.0
 30
0.0
  0
VERTEX
  5
540
  8
0
  6
CONTINUOUS
 62
     7
 10
260.7378278812
 20
411.1251851971
 30
0.0
  0
VERTEX
  5
541
  8
0
  6
CONTINUOUS
 62
     7
 10
260.7378288126
 20
411.1251907851
 30
0.0
  0
VERTEX
  5
542
  8
0
  6
CONTINUOUS
 62
     7
 10
260.7566238334
 20
411.2398887481
 30
0.0
  0
VERTEX
  5
543
  8
0
  6
CONTINUOUS
 62
     7
 10
261.4090078464
 20
413.7221875097
 30
0.0
  0
VERTEX
  5
544
  8
0
  6
CONTINUOUS
 62
     7
 10
261.9971129065
 20
415.1162432934
 30
0.0
  0
VERTEX
  5
545
  8
0
  6
CONTINUOUS
 62
     7
 10
262.7721623471
 20
416.4962919856
 30
0.0
  0
VERTEX
  5
546
  8
0
  6
CONTINUOUS
 62
     7
 10
263.7692372268
 20
417.8520033563
 30
0.0
  0
VERTEX
  5
547
  8
0
  6
CONTINUOUS
 62
     7
 10
264.4473797595
 20
418.6017943974
 30
0.0
  0
VERTEX
  5
548
  8
0
  6
CONTINUOUS
 62
     7
 10
265.2387441089
 20
419.3383010532
 30
0.0
  0
VERTEX
  5
549
  8
0
  6
CONTINUOUS
 62
     7
 10
266.5220963722
 20
420.2806188221
 30
0.0
  0
VERTEX
  5
54A
  8
0
  6
CONTINUOUS
 62
     7
 10
267.6145698829
 20
420.8750000651
 30
0.0
  0
VERTEX
  5
54B
  8
0
  6
CONTINUOUS
 62
     7
 10
268.5420325911
 20
421.2468920703
 30
0.0
  0
VERTEX
  5
54C
  8
0
  6
CONTINUOUS
 62
     7
 10
269.1256405274
 20
421.4235658253
 30
0.0
  0
VERTEX
  5
54D
  8
0
  6
CONTINUOUS
 62
     7
 10
269.8559111636
 20
421.5803726072
 30
0.0
  0
VERTEX
  5
54E
  8
0
  6
CONTINUOUS
 62
     7
 10
270.4985798523
 20
421.664186051
 30
0.0
  0
VERTEX
  5
54F
  8
0
  6
CONTINUOUS
 62
     7
 10
270.7996720169
 20
421.68585979
 30
0.0
  0
VERTEX
  5
550
  8
0
  6
CONTINUOUS
 62
     7
 10
271.2879581527
 20
421.6972666289
 30
0.0
  0
VERTEX
  5
551
  8
0
  6
CONTINUOUS
 62
     7
 10
271.7704870342
 20
421.6797223742
 30
0.0
  0
VERTEX
  5
552
  8
0
  6
CONTINUOUS
 62
     7
 10
272.3710998148
 20
421.6177391316
 30
0.0
  0
VERTEX
  5
553
  8
0
  6
CONTINUOUS
 62
     7
 10
272.8429620806
 20
421.5377962644
 30
0.0
  0
VERTEX
  5
554
  8
0
  6
CONTINUOUS
 62
     7
 10
273.2472353568
 20
421.446589982
 30
0.0
  0
VERTEX
  5
555
  8
0
  6
CONTINUOUS
 62
     7
 10
274.1995015135
 20
421.1569747384
 30
0.0
  0
VERTEX
  5
556
  8
0
  6
CONTINUOUS
 62
     7
 10
274.935384416
 20
420.8435344006
 30
0.0
  0
VERTEX
  5
557
  8
0
  6
CONTINUOUS
 62
     7
 10
275.5448626308
 20
420.5191268082
 30
0.0
  0
VERTEX
  5
558
  8
0
  6
CONTINUOUS
 62
     7
 10
277.0386919333
 20
419.5315057839
 30
0.0
  0
VERTEX
  5
559
  8
0
  6
CONTINUOUS
 62
     7
 10
278.1714837952
 20
418.5060209091
 30
0.0
  0
VERTEX
  5
55A
  8
0
  6
CONTINUOUS
 62
     7
 10
279.0457675187
 20
417.452685764
 30
0.0
  0
VERTEX
  5
55B
  8
0
  6
CONTINUOUS
 62
     7
 10
279.7640719405
 20
416.381508341
 30
0.0
  0
VERTEX
  5
55C
  8
0
  6
CONTINUOUS
 62
     7
 10
280.8708230918
 20
414.2166192139
 30
0.0
  0
VERTEX
  5
55D
  8
0
  6
CONTINUOUS
 62
     7
 10
281.5543589136
 20
412.0322579945
 30
0.0
  0
VERTEX
  5
55E
  8
0
  6
CONTINUOUS
 62
     7
 10
281.729610539
 20
411.1251926477
 30
0.0
  0
VERTEX
  5
55F
  8
0
  6
CONTINUOUS
 62
     7
 10
281.7296114704
 20
411.1251851971
 30
0.0
  0
SEQEND
  5
560
  8
0
  6
CONTINUOUS
 62
     7
  0
POLYLINE
  5
195
  8
0
  6
CONTINUOUS
 62
     7
 66
     1
 10
0.0
 20
0.0
 30
0.0
  0
VERTEX
  5
561
  8
0
  6
CONTINUOUS
 62
     7
 10
257.9981609201
 20
403.5196809526
 30
0.0
  0
VERTEX
  5
562
  8
0
  6
CONTINUOUS
 62
     7
 10
258.1255788868
 20
404.668324856
 30
0.0
  0
VERTEX
  5
563
  8
0
  6
CONTINUOUS
 62
     7
 10
258.6251393845
 20
406.7348728384
 30
0.0
  0
VERTEX
  5
564
  8
0
  6
CONTINUOUS
 62
     7
 10
259.3741136557
 20
408.5715638901
 30
0.0
  0
VERTEX
  5
565
  8
0
  6
CONTINUOUS
 62
     7
 10
259.8797743162
 20
409.5105307604
 30
0.0
  0
VERTEX
  5
566
  8
0
  6
CONTINUOUS
 62
     7
 10
260.3482873133
 20
410.2990722711
 30
0.0
  0
VERTEX
  5
567
  8
0
  6
CONTINUOUS
 62
     7
 10
260.5837377673
 20
410.7065184469
 30
0.0
  0
VERTEX
  5
568
  8
0
  6
CONTINUOUS
 62
     7
 10
260.7194323978
 20
411.0115712936
 30
0.0
  0
VERTEX
  5
569
  8
0
  6
CONTINUOUS
 62
     7
 10
260.7378278812
 20
411.1251796092
 30
0.0
  0
VERTEX
  5
56A
  8
0
  6
CONTINUOUS
 62
     7
 10
260.7378278812
 20
411.1251851971
 30
0.0
  0
SEQEND
  5
56B
  8
0
  6
CONTINUOUS
 62
     7
  0
POLYLINE
  5
196
  8
0
  6
CONTINUOUS
 62
     7
 66
     1
 10
0.0
 20
0.0
 30
0.0
  0
VERTEX
  5
56C
  8
0
  6
CONTINUOUS
 62
     7
 10
257.9981609201
 20
403.5196809526
 30
0.0
  0
VERTEX
  5
56D
  8
0
  6
CONTINUOUS
 62
     7
 10
256.7537919572
 20
402.6075687687
 30
0.0
  0
VERTEX
  5
56E
  8
0
  6
CONTINUOUS
 62
     7
 10
255.6433453178
 20
401.484974889
 30
0.0
  0
VERTEX
  5
56F
  8
0
  6
CONTINUOUS
 62
     7
 10
254.3486495456
 20
399.6717550288
 30
0.0
  0
VERTEX
  5
570
  8
0
  6
CONTINUOUS
 62
     7
 10
253.3224773547
 20
397.6285082716
 30
0.0
  0
VERTEX
  5
571
  8
0
  6
CONTINUOUS
 62
     7
 10
252.7474061539
 20
396.0607701409
 30
0.0
  0
VERTEX
  5
572
  8
0
  6
CONTINUOUS
 62
     7
 10
252.3064491293
 20
394.449738549
 30
0.0
  0
VERTEX
  5
573
  8
0
  6
CONTINUOUS
 62
     7
 10
251.9838371268
 20
392.7661742744
 30
0.0
  0
VERTEX
  5
574
  8
0
  6
CONTINUOUS
 62
     7
 10
251.7861471465
 20
391.0632396568
 30
0.0
  0
SEQEND
  5
575
  8
0
  6
CONTINUOUS
 62
     7
  0
LINE
  5
197
  8
0
  6
CONTINUOUS
 62
     7
 10
242.4837191543
 20
391.0632396544
 30
0.0
 11
251.7860819539
 21
391.0632396544
 31
0.0
  0
LINE
  5
198
  8
0
  6
CONTINUOUS
 62
     7
 10
233.4837214043
 20
391.0632396544
 30
0.0
 11
242.4837191543
 21
391.0632396544
 31
0.0
  0
LINE
  5
199
  8
0
  6
CONTINUOUS
 62
     7
 10
233.4837214043
 20
402.0632395948
 30
0.0
 11
233.4837214043
 21
391.0632396544
 31
0.0
  0
POLYLINE
  5
19A
  8
0
  6
CONTINUOUS
 62
     7
 66
     1
 10
0.0
 20
0.0
 30
0.0
  0
VERTEX
  5
576
  8
0
  6
CONTINUOUS
 62
     7
 10
257.4837197503
 20
422.0632391478
 30
0.0
  0
VERTEX
  5
577
  8
0
  6
CONTINUOUS
 62
     7
 10
254.5796138188
 20
421.916404968
 30
0.0
  0
VERTEX
  5
578
  8
0
  6
CONTINUOUS
 62
     7
 10
251.5138694039
 20
421.4343673046
 30
0.0
  0
VERTEX
  5
579
  8
0
  6
CONTINUOUS
 62
     7
 10
248.3740438661
 20
420.5668328757
 30
0.0
  0
VERTEX
  5
57A
  8
0
  6
CONTINUOUS
 62
     7
 10
246.045750468
 20
419.6453953589
 30
0.0
  0
VERTEX
  5
57B
  8
0
  6
CONTINUOUS
 62
     7
 10
243.8103080681
 20
418.5004925783
 30
0.0
  0
VERTEX
  5
57C
  8
0
  6
CONTINUOUS
 62
     7
 10
241.7304617306
 20
417.1512781138
 30
0.0
  0
VERTEX
  5
57D
  8
0
  6
CONTINUOUS
 62
     7
 10
239.8541615298
 20
415.6344386245
 30
0.0
  0
VERTEX
  5
57E
  8
0
  6
CONTINUOUS
 62
     7
 10
238.2196531585
 20
413.9914831574
 30
0.0
  0
VERTEX
  5
57F
  8
0
  6
CONTINUOUS
 62
     7
 10
236.84112811
 20
412.2656455691
 30
0.0
  0
VERTEX
  5
580
  8
0
  6
CONTINUOUS
 62
     7
 10
235.7229561498
 20
410.49873293
 30
0.0
  0
VERTEX
  5
581
  8
0
  6
CONTINUOUS
 62
     7
 10
234.8542557051
 20
408.7251482959
 30
0.0
  0
VERTEX
  5
582
  8
0
  6
CONTINUOUS
 62
     7
 10
234.2188217631
 20
406.9752844478
 30
0.0
  0
VERTEX
  5
583
  8
0
  6
CONTINUOUS
 62
     7
 10
233.7944515934
 20
405.2709361966
 30
0.0
  0
VERTEX
  5
584
  8
0
  6
CONTINUOUS
 62
     7
 10
233.5574039212
 20
403.6299840043
 30
0.0
  0
VERTEX
  5
585
  8
0
  6
CONTINUOUS
 62
     7
 10
233.4837214043
 20
402.0632395948
 30
0.0
  0
SEQEND
  5
586
  8
0
  6
CONTINUOUS
 62
     7
  0
LINE
  5
19B
  8
0
  6
CONTINUOUS
 62
     7
 10
271.2337196758
 20
422.0632391478
 30
0.0
 11
257.4837197503
 21
422.0632391478
 31
0.0
  0
LINE
  5
19C
  8
0
  6
CONTINUOUS
 62
     7
 10
284.9837196013
 20
422.0632391478
 30
0.0
 11
271.2337196758
 21
422.0632391478
 31
0.0
  0
POLYLINE
  5
19D
  8
0
  6
CONTINUOUS
 62
     7
 66
     1
 10
0.0
 20
0.0
 30
0.0
  0
VERTEX
  5
587
  8
0
  6
CONTINUOUS
 62
     7
 10
308.9837179473
 20
402.0632395948
 30
0.0
  0
VERTEX
  5
588
  8
0
  6
CONTINUOUS
 62
     7
 10
308.9100354305
 20
403.629985867
 30
0.0
  0
VERTEX
  5
589
  8
0
  6
CONTINUOUS
 62
     7
 10
308.6729840329
 20
405.2709389905
 30
0.0
  0
VERTEX
  5
58A
  8
0
  6
CONTINUOUS
 62
     7
 10
308.2486175885
 20
406.9752881731
 30
0.0
  0
VERTEX
  5
58B
  8
0
  6
CONTINUOUS
 62
     7
 10
307.6131836465
 20
408.7251538838
 30
0.0
  0
VERTEX
  5
58C
  8
0
  6
CONTINUOUS
 62
     7
 10
306.7444794765
 20
410.4987385179
 30
0.0
  0
VERTEX
  5
58D
  8
0
  6
CONTINUOUS
 62
     7
 10
305.6263075164
 20
412.2656492944
 30
0.0
  0
VERTEX
  5
58E
  8
0
  6
CONTINUOUS
 62
     7
 10
304.2477824679
 20
413.9914887453
 30
0.0
  0
VERTEX
  5
58F
  8
0
  6
CONTINUOUS
 62
     7
 10
302.6132740965
 20
415.6344423498
 30
0.0
  0
VERTEX
  5
590
  8
0
  6
CONTINUOUS
 62
     7
 10
300.7369738957
 20
417.1512799765
 30
0.0
  0
VERTEX
  5
591
  8
0
  6
CONTINUOUS
 62
     7
 10
298.6571294209
 20
418.5004925783
 30
0.0
  0
VERTEX
  5
592
  8
0
  6
CONTINUOUS
 62
     7
 10
296.4216888836
 20
419.6453953589
 30
0.0
  0
VERTEX
  5
593
  8
0
  6
CONTINUOUS
 62
     7
 10
294.0933973482
 20
420.5668328757
 30
0.0
  0
VERTEX
  5
594
  8
0
  6
CONTINUOUS
 62
     7
 10
290.9535718104
 20
421.4343673046
 30
0.0
  0
VERTEX
  5
595
  8
0
  6
CONTINUOUS
 62
     7
 10
287.8878273955
 20
421.916404968
 30
0.0
  0
VERTEX
  5
596
  8
0
  6
CONTINUOUS
 62
     7
 10
284.9837196013
 20
422.0632391478
 30
0.0
  0
SEQEND
  5
597
  8
0
  6
CONTINUOUS
 62
     7
  0
LINE
  5
19E
  8
0
  6
CONTINUOUS
 62
     7
 10
308.9837179473
 20
391.0632396544
 30
0.0
 11
308.9837179473
 21
402.0632395948
 31
0.0
  0
LINE
  5
19F
  8
0
  6
CONTINUOUS
 62
     7
 10
299.9837201973
 20
391.0632396544
 30
0.0
 11
308.9837179473
 21
391.0632396544
 31
0.0
  0
LINE
  5
1A0
  8
0
  6
CONTINUOUS
 62
     7
 10
290.6813573977
 20
391.0632396544
 30
0.0
 11
299.9837201973
 21
391.0632396544
 31
0.0
  0
POLYLINE
  5
1A1
  8
0
  6
CONTINUOUS
 62
     7
 66
     1
 10
0.0
 20
0.0
 30
0.0
  0
VERTEX
  5
598
  8
0
  6
CONTINUOUS
 62
     7
 10
290.6812922051
 20
391.0632396544
 30
0.0
  0
VERTEX
  5
599
  8
0
  6
CONTINUOUS
 62
     7
 10
290.4618353536
 20
392.905851473
 30
0.0
  0
VERTEX
  5
59A
  8
0
  6
CONTINUOUS
 62
     7
 10
290.0953897229
 20
394.7246861606
 30
0.0
  0
VERTEX
  5
59B
  8
0
  6
CONTINUOUS
 62
     7
 10
289.5538237831
 20
396.5602952483
 30
0.0
  0
VERTEX
  5
59C
  8
0
  6
CONTINUOUS
 62
     7
 10
288.8317582151
 20
398.3318174685
 30
0.0
  0
VERTEX
  5
59D
  8
0
  6
CONTINUOUS
 62
     7
 10
287.8149718931
 20
400.1582378949
 30
0.0
  0
VERTEX
  5
59E
  8
0
  6
CONTINUOUS
 62
     7
 10
286.5024664393
 20
401.8448751847
 30
0.0
  0
VERTEX
  5
59F
  8
0
  6
CONTINUOUS
 62
     7
 10
285.5524047231
 20
402.7443381454
 30
0.0
  0
VERTEX
  5
5A0
  8
0
  6
CONTINUOUS
 62
     7
 10
284.4692784315
 20
403.5196837465
 30
0.0
  0
SEQEND
  5
5A1
  8
0
  6
CONTINUOUS
 62
     7
  0
ARC
  5
1A2
  8
0
  6
CONTINUOUS
 62
     7
 10
258.7144200433
 20
368.8325405551
 30
0.0
 40
4.230699874197769
 50
90.0000173721
 51
265.0731030522
  0
ARC
  5
1A3
  8
0
  6
CONTINUOUS
 62
     7
 10
271.2337196758
 20
514.0721471592
 30
0.0
 40
150.0088744745081
 50
265.0734121105
 51
274.9265878895
  0
ARC
  5
1A4
  8
0
  6
CONTINUOUS
 62
     7
 10
283.7530196144
 20
368.8325405683
 30
0.0
 40
4.230699861032497
 50
274.9268928035
 51
89.9999867722
  0
LINE
  5
1A5
  8
0
  6
CONTINUOUS
 62
     7
 10
258.7144187605
 20
373.0632404293
 30
0.0
 11
283.7530205911
 21
373.0632404293
 31
0.0
  0
LINE
  5
1A6
  8
0
  6
CONTINUOUS
 62
     7
 10
308.9837179473
 20
361.9670181031
 30
0.0
 11
308.9837179473
 21
391.0632396544
 31
0.0
  0
ARC
  5
1A7
  8
0
  6
CONTINUOUS
 62
     7
 10
301.6019561917
 20
361.9575723589
 30
0.0
 40
7.38176779901466
 50
322.6718305124
 51
0.0733159645
  0
POLYLINE
  5
1A8
  8
0
  6
CONTINUOUS
 62
     7
 66
     1
 10
0.0
 20
0.0
 30
0.0
  0
VERTEX
  5
5A2
  8
0
  6
CONTINUOUS
 62
     7
 10
306.0544774821
 20
356.0727315451
 30
0.0
  0
VERTEX
  5
5A3
  8
0
  6
CONTINUOUS
 62
     7
 10
306.8042145064
 20
356.7226158882
 30
0.0
  0
VERTEX
  5
5A4
  8
0
  6
CONTINUOUS
 62
     7
 10
307.4717567256
 20
357.4814202691
 30
0.0
  0
SEQEND
  5
5A5
  8
0
  6
CONTINUOUS
 62
     7
  0
ARC
  5
1A9
  8
0
  6
CONTINUOUS
 62
     7
 10
301.5344199631
 20
362.0853792419
 30
0.0
 40
7.522157423259638
 50
269.8733666805
 51
306.9343170985
  0
LINE
  5
1AA
  8
0
  6
CONTINUOUS
 62
     7
 10
279.7404806083
 20
354.5632401909
 30
0.0
 11
301.5177947423
 21
354.5632401909
 31
0.0
  0
LINE
  5
1AB
  8
0
  6
CONTINUOUS
 62
     7
 10
279.5262149489
 20
354.5632401909
 30
0.0
 11
279.7404806083
 21
354.5632401909
 31
0.0
  0
ARC
  5
1AC
  8
0
  6
CONTINUOUS
 62
     7
 10
279.5442131994
 20
357.4171868731
 30
0.0
 40
2.854003434178351
 50
269.6386722528
 51
273.9903552243
  0
POLYLINE
  5
1AD
  8
0
  6
CONTINUOUS
 62
     7
 66
     1
 10
0.0
 20
0.0
 30
0.0
  0
VERTEX
  5
5A6
  8
0
  6
CONTINUOUS
 62
     7
 10
281.159905619
 20
359.0022849346
 30
0.0
  0
VERTEX
  5
5A7
  8
0
  6
CONTINUOUS
 62
     7
 10
280.688306219
 20
357.4429007675
 30
0.0
  0
VERTEX
  5
5A8
  8
0
  6
CONTINUOUS
 62
     7
 10
279.7428191593
 20
354.5701021756
 30
0.0
  0
SEQEND
  5
5A9
  8
0
  6
CONTINUOUS
 62
     7
  0
POLYLINE
  5
1AE
  8
0
  6
CONTINUOUS
 62
     7
 66
     1
 10
0.0
 20
0.0
 30
0.0
  0
VERTEX
  5
5AA
  8
0
  6
CONTINUOUS
 62
     7
 10
277.5752347848
 20
359.7527483906
 30
0.0
  0
VERTEX
  5
5AB
  8
0
  6
CONTINUOUS
 62
     7
 10
277.5752576022
 20
359.7527483906
 30
0.0
  0
VERTEX
  5
5AC
  8
0
  6
CONTINUOUS
 62
     7
 10
278.6367432168
 20
359.7087862397
 30
0.0
  0
VERTEX
  5
5AD
  8
0
  6
CONTINUOUS
 62
     7
 10
279.6329724556
 20
359.6239129509
 30
0.0
  0
VERTEX
  5
5AE
  8
0
  6
CONTINUOUS
 62
     7
 10
280.3964883974
 20
359.4993653203
 30
0.0
  0
VERTEX
  5
5AF
  8
0
  6
CONTINUOUS
 62
     7
 10
280.9045406943
 20
359.3352141286
 30
0.0
  0
VERTEX
  5
5B0
  8
0
  6
CONTINUOUS
 62
     7
 10
281.1472489452
 20
359.1380270625
 30
0.0
  0
VERTEX
  5
5B1
  8
0
  6
CONTINUOUS
 62
     7
 10
281.1658567702
 20
359.0300234462
 30
0.0
  0
VERTEX
  5
5B2
  8
0
  6
CONTINUOUS
 62
     7
 10
281.159905619
 20
359.0022849346
 30
0.0
  0
SEQEND
  5
5B3
  8
0
  6
CONTINUOUS
 62
     7
  0
ARC
  5
1AF
  8
0
  6
CONTINUOUS
 62
     7
 10
271.2337199086
 20
50.5091011848
 30
0.0
 40
309.308661611703
 50
88.8252268926
 51
91.1747731074
  0
POLYLINE
  5
1B0
  8
0
  6
CONTINUOUS
 62
     7
 66
     1
 10
0.0
 20
0.0
 30
0.0
  0
VERTEX
  5
5B4
  8
0
  6
CONTINUOUS
 62
     7
 10
261.3075337326
 20
359.0022849346
 30
0.0
  0
VERTEX
  5
5B5
  8
0
  6
CONTINUOUS
 62
     7
 10
261.3194285845
 20
359.1364847924
 30
0.0
  0
VERTEX
  5
5B6
  8
0
  6
CONTINUOUS
 62
     7
 10
261.5538797295
 20
359.3308592643
 30
0.0
  0
VERTEX
  5
5B7
  8
0
  6
CONTINUOUS
 62
     7
 10
262.0451775333
 20
359.4934346582
 30
0.0
  0
VERTEX
  5
5B8
  8
0
  6
CONTINUOUS
 62
     7
 10
262.8235517955
 20
359.6225718464
 30
0.0
  0
VERTEX
  5
5B9
  8
0
  6
CONTINUOUS
 62
     7
 10
263.8481263025
 20
359.7098069693
 30
0.0
  0
VERTEX
  5
5BA
  8
0
  6
CONTINUOUS
 62
     7
 10
264.8921822151
 20
359.7527483906
 30
0.0
  0
VERTEX
  5
5BB
  8
0
  6
CONTINUOUS
 62
     7
 10
264.8922050325
 20
359.7527483906
 30
0.0
  0
SEQEND
  5
5BC
  8
0
  6
CONTINUOUS
 62
     7
  0
POLYLINE
  5
1B1
  8
0
  6
CONTINUOUS
 62
     7
 66
     1
 10
0.0
 20
0.0
 30
0.0
  0
VERTEX
  5
5BD
  8
0
  6
CONTINUOUS
 62
     7
 10
262.7246201923
 20
354.5701021756
 30
0.0
  0
VERTEX
  5
5BE
  8
0
  6
CONTINUOUS
 62
     7
 10
261.7791359266
 20
357.4428895916
 30
0.0
  0
VERTEX
  5
5BF
  8
0
  6
CONTINUOUS
 62
     7
 10
261.3075337326
 20
359.0022849346
 30
0.0
  0
SEQEND
  5
5C0
  8
0
  6
CONTINUOUS
 62
     7
  0
ARC
  5
1B2
  8
0
  6
CONTINUOUS
 62
     7
 10
262.9223761231
 20
357.3903550044
 30
0.0
 40
2.827177643279479
 50
265.9889891423
 51
270.3819833806
  0
LINE
  5
1B3
  8
0
  6
CONTINUOUS
 62
     7
 10
262.7269587433
 20
354.5632401909
 30
0.0
 11
262.9412244028
 21
354.5632401909
 31
0.0
  0
LINE
  5
1B4
  8
0
  6
CONTINUOUS
 62
     7
 10
240.9496446094
 20
354.5632401909
 30
0.0
 11
262.7269587433
 21
354.5632401909
 31
0.0
  0
ARC
  5
1B5
  8
0
  6
CONTINUOUS
 62
     7
 10
240.9336111888
 20
362.0871578611
 30
0.0
 40
7.523934753758483
 50
233.0702194654
 51
270.1220967556
  0
POLYLINE
  5
1B6
  8
0
  6
CONTINUOUS
 62
     7
 66
     1
 10
0.0
 20
0.0
 30
0.0
  0
VERTEX
  5
5C1
  8
0
  6
CONTINUOUS
 62
     7
 10
235.0058824709
 20
357.468098631
 30
0.0
  0
VERTEX
  5
5C2
  8
0
  6
CONTINUOUS
 62
     7
 10
235.6562138489
 20
356.7295821811
 30
0.0
  0
VERTEX
  5
5C3
  8
0
  6
CONTINUOUS
 62
     7
 10
236.4129618695
 20
356.0727315451
 30
0.0
  0
SEQEND
  5
5C4
  8
0
  6
CONTINUOUS
 62
     7
  0
ARC
  5
1B7
  8
0
  6
CONTINUOUS
 62
     7
 10
240.8652931718
 20
361.9575304449
 30
0.0
 40
7.381577864802989
 50
179.9263568127
 51
217.4590360158
  0
LINE
  5
1B8
  8
0
  6
CONTINUOUS
 62
     7
 10
233.4837214043
 20
391.0632396544
 30
0.0
 11
233.4837214043
 21
361.9670181031
 31
0.0
  0
POLYLINE
  5
1B9
  8
0
  6
CONTINUOUS
 62
     7
 66
     1
 10
0.0
 20
0.0
 30
0.0
  0
VERTEX
  5
5C5
  8
0
  6
CONTINUOUS
 62
     7
 10
251.7859161785
 20
391.0632396544
 30
0.0
  0
VERTEX
  5
5C6
  8
0
  6
CONTINUOUS
 62
     7
 10
252.0485752216
 20
388.427736001
 30
0.0
  0
VERTEX
  5
5C7
  8
0
  6
CONTINUOUS
 62
     7
 10
252.6047256729
 20
385.8404934834
 30
0.0
  0
VERTEX
  5
5C8
  8
0
  6
CONTINUOUS
 62
     7
 10
253.2953032246
 20
383.8599862027
 30
0.0
  0
VERTEX
  5
5C9
  8
0
  6
CONTINUOUS
 62
     7
 10
254.2688705912
 20
382.0075441579
 30
0.0
  0
VERTEX
  5
5CA
  8
0
  6
CONTINUOUS
 62
     7
 10
255.1376846572
 20
380.902197441
 30
0.0
  0
VERTEX
  5
5CB
  8
0
  6
CONTINUOUS
 62
     7
 10
256.153944782
 20
379.914845569
 30
0.0
  0
VERTEX
  5
5CC
  8
0
  6
CONTINUOUS
 62
     7
 10
257.2281313082
 20
378.9896781052
 30
0.0
  0
VERTEX
  5
5CD
  8
0
  6
CONTINUOUS
 62
     7
 10
259.3432617327
 20
377.323102435
 30
0.0
  0
VERTEX
  5
5CE
  8
0
  6
CONTINUOUS
 62
     7
 10
261.6064268118
 20
375.8575350474
 30
0.0
  0
VERTEX
  5
5CF
  8
0
  6
CONTINUOUS
 62
     7
 10
264.0196409961
 20
374.6855615134
 30
0.0
  0
VERTEX
  5
5D0
  8
0
  6
CONTINUOUS
 62
     7
 10
266.0697227297
 20
373.9899883474
 30
0.0
  0
VERTEX
  5
5D1
  8
0
  6
CONTINUOUS
 62
     7
 10
268.1882222137
 20
373.5161053444
 30
0.0
  0
VERTEX
  5
5D2
  8
0
  6
CONTINUOUS
 62
     7
 10
270.3391262516
 20
373.2815368528
 30
0.0
  0
VERTEX
  5
5D3
  8
0
  6
CONTINUOUS
 62
     7
 10
272.5085896859
 20
373.3067850078
 30
0.0
  0
VERTEX
  5
5D4
  8
0
  6
CONTINUOUS
 62
     7
 10
274.6683302289
 20
373.5872174109
 30
0.0
  0
VERTEX
  5
5D5
  8
0
  6
CONTINUOUS
 62
     7
 10
276.7781898333
 20
374.1018793042
 30
0.0
  0
VERTEX
  5
5D6
  8
0
  6
CONTINUOUS
 62
     7
 10
278.7755894428
 20
374.8255355711
 30
0.0
  0
VERTEX
  5
5D7
  8
0
  6
CONTINUOUS
 62
     7
 10
280.6922308123
 20
375.7563664074
 30
0.0
  0
VERTEX
  5
5D8
  8
0
  6
CONTINUOUS
 62
     7
 10
282.5026958203
 20
376.8703259955
 30
0.0
  0
VERTEX
  5
5D9
  8
0
  6
CONTINUOUS
 62
     7
 10
284.3939707568
 20
378.2098435293
 30
0.0
  0
VERTEX
  5
5DA
  8
0
  6
CONTINUOUS
 62
     7
 10
286.183845154
 20
379.681465445
 30
0.0
  0
VERTEX
  5
5DB
  8
0
  6
CONTINUOUS
 62
     7
 10
287.7472740552
 20
381.3683011065
 30
0.0
  0
VERTEX
  5
5DC
  8
0
  6
CONTINUOUS
 62
     7
 10
288.6685085436
 20
382.7995799909
 30
0.0
  0
VERTEX
  5
5DD
  8
0
  6
CONTINUOUS
 62
     7
 10
289.376026853
 20
384.3611224982
 30
0.0
  0
VERTEX
  5
5DE
  8
0
  6
CONTINUOUS
 62
     7
 10
289.9039824447
 20
385.9886603857
 30
0.0
  0
VERTEX
  5
5DF
  8
0
  6
CONTINUOUS
 62
     7
 10
290.4302765569
 20
388.5039044506
 30
0.0
  0
VERTEX
  5
5E0
  8
0
  6
CONTINUOUS
 62
     7
 10
290.6815250358
 20
391.0632396574
 30
0.0
  0
SEQEND
  5
5E1
  8
0
  6
CONTINUOUS
 62
     7
  0
ARC
  5
1BA
  8
0
  6
CONTINUOUS
 62
     7
 10
288.5890509645
 20
408.3796352218
 30
0.0
 40
6.371157984693856
 50
194.0837573845
 51
229.7121127227
  0
POLYLINE
  5
1BB
  8
0
  6
CONTINUOUS
 62
     7
 66
     1
 10
0.0
 20
0.0
 30
0.0
  0
VERTEX
  5
5E2
  8
0
  6
CONTINUOUS
 62
     7
 10
282.4094033754
 20
406.8292772825
 30
0.0
  0
VERTEX
  5
5E3
  8
0
  6
CONTINUOUS
 62
     7
 10
281.9719071454
 20
408.2818927671
 30
0.0
  0
VERTEX
  5
5E4
  8
0
  6
CONTINUOUS
 62
     7
 10
281.538050524
 20
409.3432056214
 30
0.0
  0
VERTEX
  5
5E5
  8
0
  6
CONTINUOUS
 62
     7
 10
281.0913043981
 20
410.267656898
 30
0.0
  0
VERTEX
  5
5E6
  8
0
  6
CONTINUOUS
 62
     7
 10
280.6987742847
 20
411.0215029175
 30
0.0
  0
VERTEX
  5
5E7
  8
0
  6
CONTINUOUS
 62
     7
 10
280.4218976712
 20
411.6276318635
 30
0.0
  0
VERTEX
  5
5E8
  8
0
  6
CONTINUOUS
 62
     7
 10
280.3056760645
 20
412.0378254409
 30
0.0
  0
VERTEX
  5
5E9
  8
0
  6
CONTINUOUS
 62
     7
 10
280.270110718
 20
412.3462850655
 30
0.0
  0
VERTEX
  5
5EA
  8
0
  6
CONTINUOUS
 62
     7
 10
280.2352010226
 20
412.6472140158
 30
0.0
  0
VERTEX
  5
5EB
  8
0
  6
CONTINUOUS
 62
     7
 10
279.6882641455
 20
414.6493023689
 30
0.0
  0
VERTEX
  5
5EC
  8
0
  6
CONTINUOUS
 62
     7
 10
278.7475165865
 20
416.657038262
 30
0.0
  0
VERTEX
  5
5ED
  8
0
  6
CONTINUOUS
 62
     7
 10
278.1266871793
 20
417.6564274783
 30
0.0
  0
VERTEX
  5
5EE
  8
0
  6
CONTINUOUS
 62
     7
 10
277.3643377191
 20
418.6442813332
 30
0.0
  0
VERTEX
  5
5EF
  8
0
  6
CONTINUOUS
 62
     7
 10
276.3676968357
 20
419.6121247913
 30
0.0
  0
VERTEX
  5
5F0
  8
0
  6
CONTINUOUS
 62
     7
 10
275.0439926935
 20
420.5514809544
 30
0.0
  0
VERTEX
  5
5F1
  8
0
  6
CONTINUOUS
 62
     7
 10
274.5111725712
 20
420.857783636
 30
0.0
  0
VERTEX
  5
5F2
  8
0
  6
CONTINUOUS
 62
     7
 10
273.8639154891
 20
421.1556876506
 30
0.0
  0
VERTEX
  5
5F3
  8
0
  6
CONTINUOUS
 62
     7
 10
273.0130489403
 20
421.434648564
 30
0.0
  0
VERTEX
  5
5F4
  8
0
  6
CONTINUOUS
 62
     7
 10
272.2387461877
 20
421.5980546976
 30
0.0
  0
VERTEX
  5
5F5
  8
0
  6
CONTINUOUS
 62
     7
 10
271.7080115003
 20
421.6572663243
 30
0.0
  0
VERTEX
  5
5F6
  8
0
  6
CONTINUOUS
 62
     7
 10
271.2816447606
 20
421.6740319933
 30
0.0
  0
VERTEX
  5
5F7
  8
0
  6
CONTINUOUS
 62
     7
 10
270.8501929196
 20
421.6631299312
 30
0.0
  0
VERTEX
  5
5F8
  8
0
  6
CONTINUOUS
 62
     7
 10
270.5841395259
 20
421.6424247677
 30
0.0
  0
VERTEX
  5
5F9
  8
0
  6
CONTINUOUS
 62
     7
 10
270.0162233273
 20
421.5623664166
 30
0.0
  0
VERTEX
  5
5FA
  8
0
  6
CONTINUOUS
 62
     7
 10
269.36511348
 20
421.4113599117
 30
0.0
  0
VERTEX
  5
5FB
  8
0
  6
CONTINUOUS
 62
     7
 10
268.8549458003
 20
421.2441577072
 30
0.0
  0
VERTEX
  5
5FC
  8
0
  6
CONTINUOUS
 62
     7
 10
268.0350750638
 20
420.889897501
 30
0.0
  0
VERTEX
  5
5FD
  8
0
  6
CONTINUOUS
 62
     7
 10
267.0695962338
 20
420.3249870296
 30
0.0
  0
VERTEX
  5
5FE
  8
0
  6
CONTINUOUS
 62
     7
 10
265.9370800434
 20
419.4325639362
 30
0.0
  0
VERTEX
  5
5FF
  8
0
  6
CONTINUOUS
 62
     7
 10
264.6464252798
 20
418.0327022876
 30
0.0
  0
VERTEX
  5
600
  8
0
  6
CONTINUOUS
 62
     7
 10
263.7789602345
 20
416.7636821474
 30
0.0
  0
VERTEX
  5
601
  8
0
  6
CONTINUOUS
 62
     7
 10
263.1152932486
 20
415.4807536359
 30
0.0
  0
VERTEX
  5
602
  8
0
  6
CONTINUOUS
 62
     7
 10
262.6245663455
 20
414.1939675863
 30
0.0
  0
VERTEX
  5
603
  8
0
  6
CONTINUOUS
 62
     7
 10
262.1201042971
 20
411.9276667441
 30
0.0
  0
VERTEX
  5
604
  8
0
  6
CONTINUOUS
 62
     7
 10
262.0062165847
 20
411.531843474
 30
0.0
  0
VERTEX
  5
605
  8
0
  6
CONTINUOUS
 62
     7
 10
261.7162697902
 20
410.9215608294
 30
0.0
  0
VERTEX
  5
606
  8
0
  6
CONTINUOUS
 62
     7
 10
261.3040366164
 20
410.129647931
 30
0.0
  0
VERTEX
  5
607
  8
0
  6
CONTINUOUS
 62
     7
 10
260.8505346766
 20
409.1710227038
 30
0.0
  0
VERTEX
  5
608
  8
0
  6
CONTINUOUS
 62
     7
 10
260.4174873745
 20
408.0589862968
 30
0.0
  0
VERTEX
  5
609
  8
0
  6
CONTINUOUS
 62
     7
 10
260.0580350449
 20
406.8292754198
 30
0.0
  0
SEQEND
  5
60A
  8
0
  6
CONTINUOUS
 62
     7
  0
ARC
  5
1BC
  8
0
  6
CONTINUOUS
 62
     7
 10
253.897582882
 20
408.3676837004
 30
0.0
 40
6.349635492633502
 50
310.2254875012
 51
345.9786801002
  0
ARC
  5
1BD
  8
0
  6
CONTINUOUS
 62
     7
 10
271.2337196758
 20
403.0632396544
 30
0.0
 40
11.7931738217836
 50
18.6230436315
 51
161.3769692342
  0
ARC
  5
1BE
  8
0
  6
CONTINUOUS
 62
     7
 10
281.3332647272
 20
356.5353044195
 30
0.0
 40
2.473064140351489
 50
94.0196684763
 51
159.8566362897
  0
POLYLINE
  5
1BF
  8
0
  6
CONTINUOUS
 62
     7
 66
     1
 10
0.0
 20
0.0
 30
0.0
  0
VERTEX
  5
60B
  8
0
  6
CONTINUOUS
 62
     7
 10
279.0114683053
 20
357.3869543577
 30
0.0
  0
VERTEX
  5
60C
  8
0
  6
CONTINUOUS
 62
     7
 10
279.0200355416
 20
357.414920112
 30
0.0
  0
VERTEX
  5
60D
  8
0
  6
CONTINUOUS
 62
     7
 10
279.0208616247
 20
357.5237283911
 30
0.0
  0
VERTEX
  5
60E
  8
0
  6
CONTINUOUS
 62
     7
 10
278.8638508832
 20
357.7193396593
 30
0.0
  0
VERTEX
  5
60F
  8
0
  6
CONTINUOUS
 62
     7
 10
278.483160208
 20
357.8861581589
 30
0.0
  0
VERTEX
  5
610
  8
0
  6
CONTINUOUS
 62
     7
 10
277.9094012408
 20
358.0084706153
 30
0.0
  0
VERTEX
  5
611
  8
0
  6
CONTINUOUS
 62
     7
 10
277.1239330946
 20
358.092431208
 30
0.0
  0
VERTEX
  5
612
  8
0
  6
CONTINUOUS
 62
     7
 10
276.2147135986
 20
358.1362145449
 30
0.0
  0
VERTEX
  5
613
  8
0
  6
CONTINUOUS
 62
     7
 10
275.1503818622
 20
358.1677491273
 30
0.0
  0
VERTEX
  5
614
  8
0
  6
CONTINUOUS
 62
     7
 10
273.9655963564
 20
358.1940645779
 30
0.0
  0
VERTEX
  5
615
  8
0
  6
CONTINUOUS
 62
     7
 10
272.6699090749
 20
358.2099119629
 30
0.0
  0
VERTEX
  5
616
  8
0
  6
CONTINUOUS
 62
     7
 10
271.3545695774
 20
358.2146095539
 30
0.0
  0
VERTEX
  5
617
  8
0
  6
CONTINUOUS
 62
     7
 10
269.9979153881
 20
358.2112642433
 30
0.0
  0
VERTEX
  5
618
  8
0
  6
CONTINUOUS
 62
     7
 10
268.7100848602
 20
358.1975067462
 30
0.0
  0
VERTEX
  5
619
  8
0
  6
CONTINUOUS
 62
     7
 10
267.4582741642
 20
358.1714595164
 30
0.0
  0
VERTEX
  5
61A
  8
0
  6
CONTINUOUS
 62
     7
 10
266.352767027
 20
358.1393437887
 30
0.0
  0
VERTEX
  5
61B
  8
0
  6
CONTINUOUS
 62
     7
 10
265.3571482701
 20
358.0934109594
 30
0.0
  0
VERTEX
  5
61C
  8
0
  6
CONTINUOUS
 62
     7
 10
264.5716023585
 20
358.0105195249
 30
0.0
  0
VERTEX
  5
61D
  8
0
  6
CONTINUOUS
 62
     7
 10
263.9648419758
 20
357.8802461232
 30
0.0
  0
VERTEX
  5
61E
  8
0
  6
CONTINUOUS
 62
     7
 10
263.6049658945
 20
357.7202821578
 30
0.0
  0
VERTEX
  5
61F
  8
0
  6
CONTINUOUS
 62
     7
 10
263.4462028695
 20
357.5221786703
 30
0.0
  0
VERTEX
  5
620
  8
0
  6
CONTINUOUS
 62
     7
 10
263.455971512
 20
357.3869543577
 30
0.0
  0
SEQEND
  5
621
  8
0
  6
CONTINUOUS
 62
     7
  0
ARC
  5
1C0
  8
0
  6
CONTINUOUS
 62
     7
 10
261.1341751887
 20
356.5353045008
 30
0.0
 40
2.473064019716136
 50
20.1433627299
 51
85.9803444342
  0
LINE
  5
1C1
  8
0
  6
CONTINUOUS
 62
     7
 10
279.0114683053
 20
357.3869543577
 30
0.0
 11
278.2232047943
 21
355.2212195898
 31
0.0
  0
LINE
  5
1C2
  8
0
  6
CONTINUOUS
 62
     7
 10
264.2442345573
 20
355.2212195898
 30
0.0
 11
278.2232047943
 21
355.2212195898
 31
0.0
  0
LINE
  5
1C3
  8
0
  6
CONTINUOUS
 62
     7
 10
263.455971512
 20
357.3869543577
 30
0.0
 11
264.2442345573
 21
355.2212195898
 31
0.0
  0
ARC
  5
1C4
  8
0
  6
CONTINUOUS
 62
     7
 10
277.2835121376
 20
355.5632396544
 30
0.0
 40
1.0
 50
270.0
 51
340.0
  0
LINE
  5
1C5
  8
0
  6
CONTINUOUS
 62
     7
 10
277.2835119581
 20
354.5632401909
 30
0.0
 11
265.1839273935
 21
354.5632401909
 31
0.0
  0
ARC
  5
1C6
  8
0
  6
CONTINUOUS
 62
     7
 10
265.183927214
 20
355.5632396544
 30
0.0
 40
1.000000000000024
 50
200.0
 51
270.0
  0
POLYLINE
  5
1C7
  8
0
  6
CONTINUOUS
 62
     7
 66
     1
 10
0.0
 20
0.0
 30
0.0
  0
VERTEX
  5
622
  8
0
  6
CONTINUOUS
 62
     7
 10
262.7246201923
 20
354.5701021756
 30
0.0
  0
VERTEX
  5
623
  8
0
  6
CONTINUOUS
 62
     7
 10
262.8099023318
 20
354.5705194081
 30
0.0
  0
VERTEX
  5
624
  8
0
  6
CONTINUOUS
 62
     7
 10
262.9155301442
 20
354.5727285053
 30
0.0
  0
VERTEX
  5
625
  8
0
  6
CONTINUOUS
 62
     7
 10
263.0386025598
 20
354.5778545047
 30
0.0
  0
VERTEX
  5
626
  8
0
  6
CONTINUOUS
 62
     7
 10
263.189728274
 20
354.5883188452
 30
0.0
  0
VERTEX
  5
627
  8
0
  6
CONTINUOUS
 62
     7
 10
263.5208572215
 20
354.6312155629
 30
0.0
  0
VERTEX
  5
628
  8
0
  6
CONTINUOUS
 62
     7
 10
263.7683943799
 20
354.6879480089
 30
0.0
  0
VERTEX
  5
629
  8
0
  6
CONTINUOUS
 62
     7
 10
263.9282368077
 20
354.74538826
 30
0.0
  0
VERTEX
  5
62A
  8
0
  6
CONTINUOUS
 62
     7
 10
264.1324795736
 20
354.8622170891
 30
0.0
  0
VERTEX
  5
62B
  8
0
  6
CONTINUOUS
 62
     7
 10
264.2313767178
 20
354.9803870226
 30
0.0
  0
VERTEX
  5
62C
  8
0
  6
CONTINUOUS
 62
     7
 10
264.2442345573
 20
355.2212195898
 30
0.0
  0
SEQEND
  5
62D
  8
0
  6
CONTINUOUS
 62
     7
  0
POLYLINE
  5
1C8
  8
0
  6
CONTINUOUS
 62
     7
 66
     1
 10
0.0
 20
0.0
 30
0.0
  0
VERTEX
  5
62E
  8
0
  6
CONTINUOUS
 62
     7
 10
278.2232047943
 20
355.2212195898
 30
0.0
  0
VERTEX
  5
62F
  8
0
  6
CONTINUOUS
 62
     7
 10
278.2160554966
 20
355.1995905544
 30
0.0
  0
VERTEX
  5
630
  8
0
  6
CONTINUOUS
 62
     7
 10
278.2506243279
 20
354.9559789206
 30
0.0
  0
VERTEX
  5
631
  8
0
  6
CONTINUOUS
 62
     7
 10
278.3682880877
 20
354.8359984959
 30
0.0
  0
VERTEX
  5
632
  8
0
  6
CONTINUOUS
 62
     7
 10
278.611069913
 20
354.7174597586
 30
0.0
  0
VERTEX
  5
633
  8
0
  6
CONTINUOUS
 62
     7
 10
278.8102113595
 20
354.6594532634
 30
0.0
  0
VERTEX
  5
634
  8
0
  6
CONTINUOUS
 62
     7
 10
279.1415964207
 20
354.6022439803
 30
0.0
  0
VERTEX
  5
635
  8
0
  6
CONTINUOUS
 62
     7
 10
279.413059256
 20
354.5787224973
 30
0.0
  0
VERTEX
  5
636
  8
0
  6
CONTINUOUS
 62
     7
 10
279.4975562906
 20
354.5746395792
 30
0.0
  0
VERTEX
  5
637
  8
0
  6
CONTINUOUS
 62
     7
 10
279.5887430152
 20
354.571737578
 30
0.0
  0
VERTEX
  5
638
  8
0
  6
CONTINUOUS
 62
     7
 10
279.601368024
 20
354.571454456
 30
0.0
  0
VERTEX
  5
639
  8
0
  6
CONTINUOUS
 62
     7
 10
279.6963154292
 20
354.5701804067
 30
0.0
  0
VERTEX
  5
63A
  8
0
  6
CONTINUOUS
 62
     7
 10
279.7428191593
 20
354.5701021756
 30
0.0
  0
SEQEND
  5
63B
  8
0
  6
CONTINUOUS
 62
     7
  0
LINE
  5
1C9
  8
0
  6
CONTINUOUS
 62
     7
 10
279.5262149489
 20
354.5632401909
 30
0.0
 11
277.2835119581
 21
354.5632401909
 31
0.0
  0
LINE
  5
1CA
  8
0
  6
CONTINUOUS
 62
     7
 10
265.1839273935
 20
354.5632401909
 30
0.0
 11
262.9412244028
 21
354.5632401909
 31
0.0
  0
ARC
  5
1CB
  8
0
  6
CONTINUOUS
 62
     7
 10
288.3784554113
 20
401.3238028311
 30
0.0
 40
22.50000106112842
 50
0.0000004254
 51
89.9999948314
  0
LINE
  5
1CC
  8
0
  6
CONTINUOUS
 62
     7
 10
310.8784564724
 20
360.8857395555
 30
0.0
 11
310.8784564724
 21
401.3238029982
 31
0.0
  0
ARC
  5
1CD
  8
0
  6
CONTINUOUS
 62
     7
 10
303.3784539892
 20
360.8857417407
 30
0.0
 40
7.500002483193247
 50
270.0000166935
 51
359.9999833065
  0
LINE
  5
1CE
  8
0
  6
CONTINUOUS
 62
     7
 10
239.0889831772
 20
353.3857392575
 30
0.0
 11
303.3784561744
 21
353.3857392575
 31
0.0
  0
ARC
  5
1CF
  8
0
  6
CONTINUOUS
 62
     7
 10
239.0889853624
 20
360.8857417407
 30
0.0
 40
7.500002483193304
 50
180.0000166935
 51
269.9999833065
  0
LINE
  5
1D0
  8
0
  6
CONTINUOUS
 62
     7
 10
231.5889828792
 20
401.3238029982
 30
0.0
 11
231.5889828792
 21
360.8857395555
 31
0.0
  0
ARC
  5
1D1
  8
0
  6
CONTINUOUS
 62
     7
 10
254.0889839403
 20
401.3238028311
 30
0.0
 40
22.50000106112842
 50
90.0000051686
 51
179.9999995746
  0
LINE
  5
1D2
  8
0
  6
CONTINUOUS
 62
     7
 10
288.378457441
 20
423.8238038923
 30
0.0
 11
254.0889819106
 21
423.8238038923
 31
0.0
  0
INSERT
  5
1D8
  8
0
  6
CONTINUOUS
 62
     7
  2
SW_NOTE_1
 10
241.0923995962
 20
341.7264895357
 30
0.0
  0
INSERT
  5
1E0
  8
0
  6
CONTINUOUS
 62
     7
  2
SW_CENTERMARKSYMBOL_1
 10
265.183927214
 20
355.5632396544
 30
0.0
  0
INSERT
  5
1E8
  8
0
  6
CONTINUOUS
 62
     7
  2
SW_CENTERMARKSYMBOL_2
 10
277.2835121376
 20
355.5632396544
 30
0.0
  0
INSERT
  5
1F0
  8
0
  6
CONTINUOUS
 62
     7
  2
SW_CENTERMARKSYMBOL_3
 10
271.2337196758
 20
403.0632396544
 30
0.0
  0
LINE
  5
1F1
  8
0
  6
CONTINUOUS
 62
     7
 10
343.3904991994
 20
400.6738711576
 30
0.0
 11
353.2614511946
 21
410.5448222215
 31
0.0
  0
LINE
  5
1F2
  8
0
  6
CONTINUOUS
 62
     7
 10
342.395189176
 20
395.1884319502
 30
0.0
 11
359.2788418332
 21
412.0720850731
 31
0.0
  0
LINE
  5
1F3
  8
0
  6
CONTINUOUS
 62
     7
 10
342.2815342942
 20
390.5846490778
 30
0.0
 11
367.7684852896
 21
416.071601441
 31
0.0
  0
LINE
  5
1F4
  8
0
  6
CONTINUOUS
 62
     7
 10
342.2501133332
 20
386.0631009991
 30
0.0
 11
372.1678971356
 21
415.9808850343
 31
0.0
  0
LINE
  5
1F5
  8
0
  6
CONTINUOUS
 62
     7
 10
342.4944011072
 20
381.8172600548
 30
0.0
 11
375.5293767477
 21
414.8522356952
 31
0.0
  0
LINE
  5
1F6
  8
0
  6
CONTINUOUS
 62
     7
 10
343.0955083618
 20
377.9282395224
 30
0.0
 11
378.2358308831
 21
413.0685629751
 31
0.0
  0
LINE
  5
1F7
  8
0
  6
CONTINUOUS
 62
     7
 10
344.1143771211
 20
374.4569795634
 30
0.0
 11
381.4082433978
 21
411.7508458401
 31
0.0
  0
LINE
  5
1F8
  8
0
  6
CONTINUOUS
 62
     7
 10
345.5005520532
 20
371.3530267085
 30
0.0
 11
385.03672644
 21
410.8892010952
 31
0.0
  0
LINE
  5
1F9
  8
0
  6
CONTINUOUS
 62
     7
 10
347.4004426548
 20
368.7627895231
 30
0.0
 11
388.2863940248
 21
409.6487408931
 31
0.0
  0
LINE
  5
1FA
  8
0
  6
CONTINUOUS
 62
     7
 10
356.0317754323
 20
372.9039935823
 30
0.0
 11
391.1643428305
 21
408.0365619118
 31
0.0
  0
LINE
  5
1FB
  8
0
  6
CONTINUOUS
 62
     7
 10
349.8943009922
 20
366.7665200735
 30
0.0
 11
353.1101373533
 21
369.9823564346
 31
0.0
  0
LINE
  5
1FC
  8
0
  6
CONTINUOUS
 62
     7
 10
360.681149135
 20
373.0632404293
 30
0.0
 11
393.4311037461
 21
405.8131950404
 31
0.0
  0
LINE
  5
1FD
  8
0
  6
CONTINUOUS
 62
     7
 10
352.9258509675
 20
365.3079422618
 30
0.0
 11
353.8468842903
 21
366.2289755846
 31
0.0
  0
LINE
  5
1FE
  8
0
  6
CONTINUOUS
 62
     7
 10
365.171276922
 20
373.0632404293
 30
0.0
 11
395.153510342
 21
403.0454738493
 31
0.0
  0
LINE
  5
1FF
  8
0
  6
CONTINUOUS
 62
     7
 10
356.1710444788
 20
364.0630061234
 30
0.0
 11
356.7336573774
 21
364.6256199534
 31
0.0
  0
LINE
  5
200
  8
0
  6
CONTINUOUS
 62
     7
 10
369.6614050291
 20
373.0632404293
 30
0.0
 11
396.3085123847
 21
399.7103462423
 31
0.0
  0
LINE
  5
201
  8
0
  6
CONTINUOUS
 62
     7
 10
359.7090737472
 20
363.1109076048
 30
0.0
 11
360.9187146226
 21
364.3205484803
 31
0.0
  0
LINE
  5
202
  8
0
  6
CONTINUOUS
 62
     7
 10
374.1515329616
 20
373.0632404293
 30
0.0
 11
396.9409251163
 21
395.8526321183
 31
0.0
  0
LINE
  5
203
  8
0
  6
CONTINUOUS
 62
     7
 10
363.5114738295
 20
362.4231799002
 30
0.0
 11
365.2185201222
 21
364.1302271242
 31
0.0
  0
LINE
  5
204
  8
0
  6
CONTINUOUS
 62
     7
 10
378.6416612143
 20
373.0632404293
 30
0.0
 11
397.1000862817
 21
391.5216646817
 31
0.0
  0
LINE
  5
205
  8
0
  6
CONTINUOUS
 62
     7
 10
367.6338109231
 20
362.0553894396
 30
0.0
 11
369.6416728394
 21
364.0632519926
 31
0.0
  0
LINE
  5
206
  8
0
  6
CONTINUOUS
 62
     7
 10
383.0496770838
 20
372.9811275805
 30
0.0
 11
397.1752347002
 21
387.1066851969
 31
0.0
  0
LINE
  5
207
  8
0
  6
CONTINUOUS
 62
     7
 10
372.1438091757
 20
362.075260138
 30
0.0
 11
374.1992553273
 21
364.130705824
 31
0.0
  0
LINE
  5
208
  8
0
  6
CONTINUOUS
 62
     7
 10
385.7394037346
 20
371.1807264443
 30
0.0
 11
396.9645732591
 21
382.4058950375
 31
0.0
  0
LINE
  5
209
  8
0
  6
CONTINUOUS
 62
     7
 10
377.1692998285
 20
362.6106216068
 30
0.0
 11
378.9045409808
 21
364.3458636905
 31
0.0
  0
LINE
  5
20A
  8
0
  6
CONTINUOUS
 62
     7
 10
386.018884326
 20
366.9700792487
 30
0.0
 11
396.1221007208
 21
377.0732947121
 31
0.0
  0
LINE
  5
20B
  8
0
  6
CONTINUOUS
 62
     7
 10
383.043262134
 20
363.994455194
 30
0.0
 11
384.0826544488
 21
365.0338484402
 31
0.0
  0
POLYLINE
  5
20C
  8
0
  6
CONTINUOUS
 62
     7
 66
     1
 10
0.0
 20
0.0
 30
0.0
  0
VERTEX
  5
63C
  8
0
  6
CONTINUOUS
 62
     7
 10
359.3726818959
 20
411.9987396951
 30
0.0
  0
VERTEX
  5
63D
  8
0
  6
CONTINUOUS
 62
     7
 10
359.8761809567
 20
413.7221875097
 30
0.0
  0
VERTEX
  5
63E
  8
0
  6
CONTINUOUS
 62
     7
 10
360.4642860169
 20
415.1162432934
 30
0.0
  0
VERTEX
  5
63F
  8
0
  6
CONTINUOUS
 62
     7
 10
361.2393354574
 20
416.4962919856
 30
0.0
  0
VERTEX
  5
640
  8
0
  6
CONTINUOUS
 62
     7
 10
362.2364103371
 20
417.8520033563
 30
0.0
  0
VERTEX
  5
641
  8
0
  6
CONTINUOUS
 62
     7
 10
362.9145528699
 20
418.6017943974
 30
0.0
  0
VERTEX
  5
642
  8
0
  6
CONTINUOUS
 62
     7
 10
363.7059172193
 20
419.3383010532
 30
0.0
  0
VERTEX
  5
643
  8
0
  6
CONTINUOUS
 62
     7
 10
364.9892694826
 20
420.2806188221
 30
0.0
  0
VERTEX
  5
644
  8
0
  6
CONTINUOUS
 62
     7
 10
366.0817429932
 20
420.8750000651
 30
0.0
  0
VERTEX
  5
645
  8
0
  6
CONTINUOUS
 62
     7
 10
367.0092057014
 20
421.2468920703
 30
0.0
  0
VERTEX
  5
646
  8
0
  6
CONTINUOUS
 62
     7
 10
367.5928136377
 20
421.4235658253
 30
0.0
  0
VERTEX
  5
647
  8
0
  6
CONTINUOUS
 62
     7
 10
368.323084274
 20
421.5803726072
 30
0.0
  0
VERTEX
  5
648
  8
0
  6
CONTINUOUS
 62
     7
 10
368.9657529626
 20
421.664186051
 30
0.0
  0
VERTEX
  5
649
  8
0
  6
CONTINUOUS
 62
     7
 10
369.2668451272
 20
421.68585979
 30
0.0
  0
VERTEX
  5
64A
  8
0
  6
CONTINUOUS
 62
     7
 10
369.755131263
 20
421.6972666289
 30
0.0
  0
VERTEX
  5
64B
  8
0
  6
CONTINUOUS
 62
     7
 10
370.2376601446
 20
421.6797223742
 30
0.0
  0
VERTEX
  5
64C
  8
0
  6
CONTINUOUS
 62
     7
 10
370.8382729251
 20
421.6177391316
 30
0.0
  0
VERTEX
  5
64D
  8
0
  6
CONTINUOUS
 62
     7
 10
371.310135191
 20
421.5377962644
 30
0.0
  0
VERTEX
  5
64E
  8
0
  6
CONTINUOUS
 62
     7
 10
371.7144084672
 20
421.446589982
 30
0.0
  0
VERTEX
  5
64F
  8
0
  6
CONTINUOUS
 62
     7
 10
372.6666746238
 20
421.1569747384
 30
0.0
  0
VERTEX
  5
650
  8
0
  6
CONTINUOUS
 62
     7
 10
373.4025575264
 20
420.8435344006
 30
0.0
  0
VERTEX
  5
651
  8
0
  6
CONTINUOUS
 62
     7
 10
374.0120357411
 20
420.5191268082
 30
0.0
  0
VERTEX
  5
652
  8
0
  6
CONTINUOUS
 62
     7
 10
375.5058650436
 20
419.5315057839
 30
0.0
  0
VERTEX
  5
653
  8
0
  6
CONTINUOUS
 62
     7
 10
376.6386569055
 20
418.5060209091
 30
0.0
  0
VERTEX
  5
654
  8
0
  6
CONTINUOUS
 62
     7
 10
377.512940629
 20
417.452685764
 30
0.0
  0
VERTEX
  5
655
  8
0
  6
CONTINUOUS
 62
     7
 10
378.2312450508
 20
416.381508341
 30
0.0
  0
VERTEX
  5
656
  8
0
  6
CONTINUOUS
 62
     7
 10
379.3379962022
 20
414.2166192139
 30
0.0
  0
VERTEX
  5
657
  8
0
  6
CONTINUOUS
 62
     7
 10
380.0215320239
 20
412.0322579945
 30
0.0
  0
VERTEX
  5
658
  8
0
  6
CONTINUOUS
 62
     7
 10
380.0291027451
 20
411.9987415577
 30
0.0
  0
SEQEND
  5
659
  8
0
  6
CONTINUOUS
 62
     7
  0
POLYLINE
  5
20D
  8
0
  6
CONTINUOUS
 62
     7
 66
     1
 10
0.0
 20
0.0
 30
0.0
  0
VERTEX
  5
65A
  8
0
  6
CONTINUOUS
 62
     7
 10
359.3726818959
 20
411.9987396951
 30
0.0
  0
VERTEX
  5
65B
  8
0
  6
CONTINUOUS
 62
     7
 10
357.7184853653
 20
411.7150569762
 30
0.0
  0
VERTEX
  5
65C
  8
0
  6
CONTINUOUS
 62
     7
 10
354.7393912027
 20
411.0500479544
 30
0.0
  0
VERTEX
  5
65D
  8
0
  6
CONTINUOUS
 62
     7
 10
351.8569161693
 20
410.0646919067
 30
0.0
  0
VERTEX
  5
65E
  8
0
  6
CONTINUOUS
 62
     7
 10
350.2904129723
 20
409.3273675497
 30
0.0
  0
VERTEX
  5
65F
  8
0
  6
CONTINUOUS
 62
     7
 10
348.7951429138
 20
408.4502796139
 30
0.0
  0
VERTEX
  5
660
  8
0
  6
CONTINUOUS
 62
     7
 10
347.4204958925
 20
407.407399496
 30
0.0
  0
VERTEX
  5
661
  8
0
  6
CONTINUOUS
 62
     7
 10
345.9342838774
 20
405.8378117586
 30
0.0
  0
VERTEX
  5
662
  8
0
  6
CONTINUOUS
 62
     7
 10
344.7385252962
 20
404.0340802128
 30
0.0
  0
VERTEX
  5
663
  8
0
  6
CONTINUOUS
 62
     7
 10
343.9018064687
 20
402.2567246537
 30
0.0
  0
VERTEX
  5
664
  8
0
  6
CONTINUOUS
 62
     7
 10
343.2699674318
 20
400.3882168288
 30
0.0
  0
VERTEX
  5
665
  8
0
  6
CONTINUOUS
 62
     7
 10
342.8161004136
 20
398.4719321559
 30
0.0
  0
VERTEX
  5
666
  8
0
  6
CONTINUOUS
 62
     7
 10
342.343359212
 20
394.7841119914
 30
0.0
  0
VERTEX
  5
667
  8
0
  6
CONTINUOUS
 62
     7
 10
342.2848516653
 20
391.0632396544
 30
0.0
  0
SEQEND
  5
668
  8
0
  6
CONTINUOUS
 62
     7
  0
LINE
  5
20E
  8
0
  6
CONTINUOUS
 62
     7
 10
340.9508922646
 20
391.0632396544
 30
0.0
 11
342.2848516653
 21
391.0632396544
 31
0.0
  0
LINE
  5
20F
  8
0
  6
CONTINUOUS
 62
     7
 10
331.9508945147
 20
391.0632396544
 30
0.0
 11
340.9508922646
 21
391.0632396544
 31
0.0
  0
LINE
  5
210
  8
0
  6
CONTINUOUS
 62
     7
 10
331.9508945147
 20
402.0632395948
 30
0.0
 11
331.9508945147
 21
391.0632396544
 31
0.0
  0
POLYLINE
  5
211
  8
0
  6
CONTINUOUS
 62
     7
 66
     1
 10
0.0
 20
0.0
 30
0.0
  0
VERTEX
  5
669
  8
0
  6
CONTINUOUS
 62
     7
 10
355.9508928607
 20
422.0632391478
 30
0.0
  0
VERTEX
  5
66A
  8
0
  6
CONTINUOUS
 62
     7
 10
353.0467869291
 20
421.916404968
 30
0.0
  0
VERTEX
  5
66B
  8
0
  6
CONTINUOUS
 62
     7
 10
349.9810425142
 20
421.4343673046
 30
0.0
  0
VERTEX
  5
66C
  8
0
  6
CONTINUOUS
 62
     7
 10
346.8412169764
 20
420.5668328757
 30
0.0
  0
VERTEX
  5
66D
  8
0
  6
CONTINUOUS
 62
     7
 10
344.5129235784
 20
419.6453953589
 30
0.0
  0
VERTEX
  5
66E
  8
0
  6
CONTINUOUS
 62
     7
 10
342.2774811784
 20
418.5004925783
 30
0.0
  0
VERTEX
  5
66F
  8
0
  6
CONTINUOUS
 62
     7
 10
340.197634841
 20
417.1512781138
 30
0.0
  0
VERTEX
  5
670
  8
0
  6
CONTINUOUS
 62
     7
 10
338.3213346401
 20
415.6344386245
 30
0.0
  0
VERTEX
  5
671
  8
0
  6
CONTINUOUS
 62
     7
 10
336.6868262688
 20
413.9914831574
 30
0.0
  0
VERTEX
  5
672
  8
0
  6
CONTINUOUS
 62
     7
 10
335.3083012203
 20
412.2656455691
 30
0.0
  0
VERTEX
  5
673
  8
0
  6
CONTINUOUS
 62
     7
 10
334.1901292602
 20
410.49873293
 30
0.0
  0
VERTEX
  5
674
  8
0
  6
CONTINUOUS
 62
     7
 10
333.3214288155
 20
408.7251482959
 30
0.0
  0
VERTEX
  5
675
  8
0
  6
CONTINUOUS
 62
     7
 10
332.6859948734
 20
406.9752844478
 30
0.0
  0
VERTEX
  5
676
  8
0
  6
CONTINUOUS
 62
     7
 10
332.2616247038
 20
405.2709361966
 30
0.0
  0
VERTEX
  5
677
  8
0
  6
CONTINUOUS
 62
     7
 10
332.0245770315
 20
403.6299840043
 30
0.0
  0
VERTEX
  5
678
  8
0
  6
CONTINUOUS
 62
     7
 10
331.9508945147
 20
402.0632395948
 30
0.0
  0
SEQEND
  5
679
  8
0
  6
CONTINUOUS
 62
     7
  0
LINE
  5
212
  8
0
  6
CONTINUOUS
 62
     7
 10
369.7008927861
 20
422.0632391478
 30
0.0
 11
355.9508928607
 21
422.0632391478
 31
0.0
  0
LINE
  5
213
  8
0
  6
CONTINUOUS
 62
     7
 10
383.4508927116
 20
422.0632391478
 30
0.0
 11
369.7008927861
 21
422.0632391478
 31
0.0
  0
POLYLINE
  5
214
  8
0
  6
CONTINUOUS
 62
     7
 66
     1
 10
0.0
 20
0.0
 30
0.0
  0
VERTEX
  5
67A
  8
0
  6
CONTINUOUS
 62
     7
 10
407.4508910576
 20
402.0632395948
 30
0.0
  0
VERTEX
  5
67B
  8
0
  6
CONTINUOUS
 62
     7
 10
407.3772085408
 20
403.629985867
 30
0.0
  0
VERTEX
  5
67C
  8
0
  6
CONTINUOUS
 62
     7
 10
407.1401571432
 20
405.2709389905
 30
0.0
  0
VERTEX
  5
67D
  8
0
  6
CONTINUOUS
 62
     7
 10
406.7157906989
 20
406.9752881731
 30
0.0
  0
VERTEX
  5
67E
  8
0
  6
CONTINUOUS
 62
     7
 10
406.0803567568
 20
408.7251538838
 30
0.0
  0
VERTEX
  5
67F
  8
0
  6
CONTINUOUS
 62
     7
 10
405.2116525868
 20
410.4987385179
 30
0.0
  0
VERTEX
  5
680
  8
0
  6
CONTINUOUS
 62
     7
 10
404.0934806267
 20
412.2656492944
 30
0.0
  0
VERTEX
  5
681
  8
0
  6
CONTINUOUS
 62
     7
 10
402.7149555782
 20
413.9914887453
 30
0.0
  0
VERTEX
  5
682
  8
0
  6
CONTINUOUS
 62
     7
 10
401.0804472069
 20
415.6344423498
 30
0.0
  0
VERTEX
  5
683
  8
0
  6
CONTINUOUS
 62
     7
 10
399.204147006
 20
417.1512799765
 30
0.0
  0
VERTEX
  5
684
  8
0
  6
CONTINUOUS
 62
     7
 10
397.1243025312
 20
418.5004925783
 30
0.0
  0
VERTEX
  5
685
  8
0
  6
CONTINUOUS
 62
     7
 10
394.8888619939
 20
419.6453953589
 30
0.0
  0
VERTEX
  5
686
  8
0
  6
CONTINUOUS
 62
     7
 10
392.5605704585
 20
420.5668328757
 30
0.0
  0
VERTEX
  5
687
  8
0
  6
CONTINUOUS
 62
     7
 10
389.4207449207
 20
421.4343673046
 30
0.0
  0
VERTEX
  5
688
  8
0
  6
CONTINUOUS
 62
     7
 10
386.3550005058
 20
421.916404968
 30
0.0
  0
VERTEX
  5
689
  8
0
  6
CONTINUOUS
 62
     7
 10
383.4508927116
 20
422.0632391478
 30
0.0
  0
SEQEND
  5
68A
  8
0
  6
CONTINUOUS
 62
     7
  0
LINE
  5
215
  8
0
  6
CONTINUOUS
 62
     7
 10
407.4508910576
 20
391.0632396544
 30
0.0
 11
407.4508910576
 21
402.0632395948
 31
0.0
  0
LINE
  5
216
  8
0
  6
CONTINUOUS
 62
     7
 10
398.4508933077
 20
391.0632396544
 30
0.0
 11
407.4508910576
 21
391.0632396544
 31
0.0
  0
LINE
  5
217
  8
0
  6
CONTINUOUS
 62
     7
 10
397.116933907
 20
391.0632396544
 30
0.0
 11
398.4508933077
 21
391.0632396544
 31
0.0
  0
POLYLINE
  5
218
  8
0
  6
CONTINUOUS
 62
     7
 66
     1
 10
0.0
 20
0.0
 30
0.0
  0
VERTEX
  5
68B
  8
0
  6
CONTINUOUS
 62
     7
 10
397.116933907
 20
391.0632396544
 30
0.0
  0
VERTEX
  5
68C
  8
0
  6
CONTINUOUS
 62
     7
 10
397.1148235301
 20
393.641845785
 30
0.0
  0
VERTEX
  5
68D
  8
0
  6
CONTINUOUS
 62
     7
 10
396.9276761214
 20
396.2131531405
 30
0.0
  0
VERTEX
  5
68E
  8
0
  6
CONTINUOUS
 62
     7
 10
396.5789814988
 20
398.5135497021
 30
0.0
  0
VERTEX
  5
68F
  8
0
  6
CONTINUOUS
 62
     7
 10
396.0194019178
 20
400.7753974254
 30
0.0
  0
VERTEX
  5
690
  8
0
  6
CONTINUOUS
 62
     7
 10
395.206200848
 20
402.948288476
 30
0.0
  0
VERTEX
  5
691
  8
0
  6
CONTINUOUS
 62
     7
 10
394.1821353087
 20
404.8371717761
 30
0.0
  0
VERTEX
  5
692
  8
0
  6
CONTINUOUS
 62
     7
 10
392.8735376844
 20
406.5377956684
 30
0.0
  0
VERTEX
  5
693
  8
0
  6
CONTINUOUS
 62
     7
 10
391.2665480325
 20
407.9711141492
 30
0.0
  0
VERTEX
  5
694
  8
0
  6
CONTINUOUS
 62
     7
 10
389.4481239418
 20
409.1355765666
 30
0.0
  0
VERTEX
  5
695
  8
0
  6
CONTINUOUS
 62
     7
 10
387.290340806
 20
410.1633711214
 30
0.0
  0
VERTEX
  5
696
  8
0
  6
CONTINUOUS
 62
     7
 10
385.0234932775
 20
410.9489025976
 30
0.0
  0
VERTEX
  5
697
  8
0
  6
CONTINUOUS
 62
     7
 10
382.6972581024
 20
411.51915141
 30
0.0
  0
VERTEX
  5
698
  8
0
  6
CONTINUOUS
 62
     7
 10
380.0291027451
 20
411.9987415577
 30
0.0
  0
SEQEND
  5
699
  8
0
  6
CONTINUOUS
 62
     7
  0
LINE
  5
219
  8
0
  6
CONTINUOUS
 62
     7
 10
407.4508910576
 20
361.9670181031
 30
0.0
 11
407.4508910576
 21
391.0632396544
 31
0.0
  0
ARC
  5
21A
  8
0
  6
CONTINUOUS
 62
     7
 10
400.069129302
 20
361.9575723589
 30
0.0
 40
7.381767799014609
 50
322.6718305124
 51
0.0733159645
  0
POLYLINE
  5
21B
  8
0
  6
CONTINUOUS
 62
     7
 66
     1
 10
0.0
 20
0.0
 30
0.0
  0
VERTEX
  5
69A
  8
0
  6
CONTINUOUS
 62
     7
 10
404.5216505924
 20
356.0727315451
 30
0.0
  0
VERTEX
  5
69B
  8
0
  6
CONTINUOUS
 62
     7
 10
405.2713876168
 20
356.7226158882
 30
0.0
  0
VERTEX
  5
69C
  8
0
  6
CONTINUOUS
 62
     7
 10
405.9389298359
 20
357.4814202691
 30
0.0
  0
SEQEND
  5
69D
  8
0
  6
CONTINUOUS
 62
     7
  0
ARC
  5
21C
  8
0
  6
CONTINUOUS
 62
     7
 10
400.0015930735
 20
362.0853792419
 30
0.0
 40
7.522157423259532
 50
269.8733666805
 51
306.9343170985
  0
LINE
  5
21D
  8
0
  6
CONTINUOUS
 62
     7
 10
378.2076537186
 20
354.5632401909
 30
0.0
 11
399.9849678526
 21
354.5632401909
 31
0.0
  0
LINE
  5
21E
  8
0
  6
CONTINUOUS
 62
     7
 10
377.9933880592
 20
354.5632401909
 30
0.0
 11
378.2076537186
 21
354.5632401909
 31
0.0
  0
ARC
  5
21F
  8
0
  6
CONTINUOUS
 62
     7
 10
378.0113863098
 20
357.4171868731
 30
0.0
 40
2.854003434178348
 50
269.6386722528
 51
273.9903552243
  0
POLYLINE
  5
220
  8
0
  6
CONTINUOUS
 62
     7
 66
     1
 10
0.0
 20
0.0
 30
0.0
  0
VERTEX
  5
69E
  8
0
  6
CONTINUOUS
 62
     7
 10
379.6270787293
 20
359.0022849346
 30
0.0
  0
VERTEX
  5
69F
  8
0
  6
CONTINUOUS
 62
     7
 10
379.1554793293
 20
357.4429007675
 30
0.0
  0
VERTEX
  5
6A0
  8
0
  6
CONTINUOUS
 62
     7
 10
378.2099922696
 20
354.5701021756
 30
0.0
  0
SEQEND
  5
6A1
  8
0
  6
CONTINUOUS
 62
     7
  0
POLYLINE
  5
221
  8
0
  6
CONTINUOUS
 62
     7
 66
     1
 10
0.0
 20
0.0
 30
0.0
  0
VERTEX
  5
6A2
  8
0
  6
CONTINUOUS
 62
     7
 10
376.0424078951
 20
359.7527483906
 30
0.0
  0
VERTEX
  5
6A3
  8
0
  6
CONTINUOUS
 62
     7
 10
376.0424307125
 20
359.7527483906
 30
0.0
  0
VERTEX
  5
6A4
  8
0
  6
CONTINUOUS
 62
     7
 10
377.1039163271
 20
359.7087862397
 30
0.0
  0
VERTEX
  5
6A5
  8
0
  6
CONTINUOUS
 62
     7
 10
378.1001455659
 20
359.6239129509
 30
0.0
  0
VERTEX
  5
6A6
  8
0
  6
CONTINUOUS
 62
     7
 10
378.8636615077
 20
359.4993653203
 30
0.0
  0
VERTEX
  5
6A7
  8
0
  6
CONTINUOUS
 62
     7
 10
379.3717138047
 20
359.3352141286
 30
0.0
  0
VERTEX
  5
6A8
  8
0
  6
CONTINUOUS
 62
     7
 10
379.6144220555
 20
359.1380270625
 30
0.0
  0
VERTEX
  5
6A9
  8
0
  6
CONTINUOUS
 62
     7
 10
379.6330298806
 20
359.0300234462
 30
0.0
  0
VERTEX
  5
6AA
  8
0
  6
CONTINUOUS
 62
     7
 10
379.6270787293
 20
359.0022849346
 30
0.0
  0
SEQEND
  5
6AB
  8
0
  6
CONTINUOUS
 62
     7
  0
ARC
  5
222
  8
0
  6
CONTINUOUS
 62
     7
 10
369.700893019
 20
50.5091011848
 30
0.0
 40
309.308661611703
 50
88.8252268926
 51
91.1747731074
  0
POLYLINE
  5
223
  8
0
  6
CONTINUOUS
 62
     7
 66
     1
 10
0.0
 20
0.0
 30
0.0
  0
VERTEX
  5
6AC
  8
0
  6
CONTINUOUS
 62
     7
 10
359.774706843
 20
359.0022849346
 30
0.0
  0
VERTEX
  5
6AD
  8
0
  6
CONTINUOUS
 62
     7
 10
359.7866016949
 20
359.1364847924
 30
0.0
  0
VERTEX
  5
6AE
  8
0
  6
CONTINUOUS
 62
     7
 10
360.0210528398
 20
359.3308592643
 30
0.0
  0
VERTEX
  5
6AF
  8
0
  6
CONTINUOUS
 62
     7
 10
360.5123506436
 20
359.4934346582
 30
0.0
  0
VERTEX
  5
6B0
  8
0
  6
CONTINUOUS
 62
     7
 10
361.2907249058
 20
359.6225718464
 30
0.0
  0
VERTEX
  5
6B1
  8
0
  6
CONTINUOUS
 62
     7
 10
362.3152994128
 20
359.7098069693
 30
0.0
  0
VERTEX
  5
6B2
  8
0
  6
CONTINUOUS
 62
     7
 10
363.3593553255
 20
359.7527483906
 30
0.0
  0
VERTEX
  5
6B3
  8
0
  6
CONTINUOUS
 62
     7
 10
363.3593781429
 20
359.7527483906
 30
0.0
  0
SEQEND
  5
6B4
  8
0
  6
CONTINUOUS
 62
     7
  0
POLYLINE
  5
224
  8
0
  6
CONTINUOUS
 62
     7
 66
     1
 10
0.0
 20
0.0
 30
0.0
  0
VERTEX
  5
6B5
  8
0
  6
CONTINUOUS
 62
     7
 10
361.1917933027
 20
354.5701021756
 30
0.0
  0
VERTEX
  5
6B6
  8
0
  6
CONTINUOUS
 62
     7
 10
360.246309037
 20
357.4428895916
 30
0.0
  0
VERTEX
  5
6B7
  8
0
  6
CONTINUOUS
 62
     7
 10
359.774706843
 20
359.0022849346
 30
0.0
  0
SEQEND
  5
6B8
  8
0
  6
CONTINUOUS
 62
     7
  0
ARC
  5
225
  8
0
  6
CONTINUOUS
 62
     7
 10
361.3895492335
 20
357.3903550044
 30
0.0
 40
2.827177643279479
 50
265.9889891423
 51
270.3819833806
  0
LINE
  5
226
  8
0
  6
CONTINUOUS
 62
     7
 10
361.1941318536
 20
354.5632401909
 30
0.0
 11
361.4083975131
 21
354.5632401909
 31
0.0
  0
LINE
  5
227
  8
0
  6
CONTINUOUS
 62
     7
 10
339.4168177197
 20
354.5632401909
 30
0.0
 11
361.1941318536
 21
354.5632401909
 31
0.0
  0
ARC
  5
228
  8
0
  6
CONTINUOUS
 62
     7
 10
339.4007842992
 20
362.0871578611
 30
0.0
 40
7.523934753758426
 50
233.0702194654
 51
270.1220967556
  0
POLYLINE
  5
229
  8
0
  6
CONTINUOUS
 62
     7
 66
     1
 10
0.0
 20
0.0
 30
0.0
  0
VERTEX
  5
6B9
  8
0
  6
CONTINUOUS
 62
     7
 10
333.4730555812
 20
357.468098631
 30
0.0
  0
VERTEX
  5
6BA
  8
0
  6
CONTINUOUS
 62
     7
 10
334.1233869592
 20
356.7295821811
 30
0.0
  0
VERTEX
  5
6BB
  8
0
  6
CONTINUOUS
 62
     7
 10
334.8801349798
 20
356.0727315451
 30
0.0
  0
SEQEND
  5
6BC
  8
0
  6
CONTINUOUS
 62
     7
  0
ARC
  5
22A
  8
0
  6
CONTINUOUS
 62
     7
 10
339.3324662822
 20
361.9575304449
 30
0.0
 40
7.381577864802989
 50
179.9263568127
 51
217.4590360158
  0
LINE
  5
22B
  8
0
  6
CONTINUOUS
 62
     7
 10
331.9508945147
 20
391.0632396544
 30
0.0
 11
331.9508945147
 21
361.9670181031
 31
0.0
  0
POLYLINE
  5
22C
  8
0
  6
CONTINUOUS
 62
     7
 66
     1
 10
0.0
 20
0.0
 30
0.0
  0
VERTEX
  5
6BD
  8
0
  6
CONTINUOUS
 62
     7
 10
342.2848591158
 20
391.0632396544
 30
0.0
  0
VERTEX
  5
6BE
  8
0
  6
CONTINUOUS
 62
     7
 10
342.2483102927
 20
385.8034976254
 30
0.0
  0
VERTEX
  5
6BF
  8
0
  6
CONTINUOUS
 62
     7
 10
342.3696932892
 20
383.1738952975
 30
0.0
  0
VERTEX
  5
6C0
  8
0
  6
CONTINUOUS
 62
     7
 10
342.6198986868
 20
380.5379404182
 30
0.0
  0
VERTEX
  5
6C1
  8
0
  6
CONTINUOUS
 62
     7
 10
343.0468355814
 20
377.9306274335
 30
0.0
  0
VERTEX
  5
6C2
  8
0
  6
CONTINUOUS
 62
     7
 10
343.6984018931
 20
375.386947995
 30
0.0
  0
VERTEX
  5
6C3
  8
0
  6
CONTINUOUS
 62
     7
 10
344.6225067178
 20
372.941898411
 30
0.0
  0
VERTEX
  5
6C4
  8
0
  6
CONTINUOUS
 62
     7
 10
345.4575174997
 20
371.3267652745
 30
0.0
  0
VERTEX
  5
6C5
  8
0
  6
CONTINUOUS
 62
     7
 10
346.471388782
 20
369.8114531542
 30
0.0
  0
VERTEX
  5
6C6
  8
0
  6
CONTINUOUS
 62
     7
 10
347.6619189183
 20
368.4416415597
 30
0.0
  0
VERTEX
  5
6C7
  8
0
  6
CONTINUOUS
 62
     7
 10
349.0760819564
 20
367.2800215389
 30
0.0
  0
VERTEX
  5
6C8
  8
0
  6
CONTINUOUS
 62
     7
 10
350.6648288617
 20
366.3379570897
 30
0.0
  0
VERTEX
  5
6C9
  8
0
  6
CONTINUOUS
 62
     7
 10
352.3290091703
 20
365.5369041915
 30
0.0
  0
VERTEX
  5
6CA
  8
0
  6
CONTINUOUS
 62
     7
 10
355.3681149656
 20
364.320282122
 30
0.0
  0
VERTEX
  5
6CB
  8
0
  6
CONTINUOUS
 62
     7
 10
358.5104401732
 20
363.3637635465
 30
0.0
  0
VERTEX
  5
6CC
  8
0
  6
CONTINUOUS
 62
     7
 10
361.7211971009
 20
362.6591472383
 30
0.0
  0
VERTEX
  5
6CD
  8
0
  6
CONTINUOUS
 62
     7
 10
364.965596194
 20
362.1982338334
 30
0.0
  0
VERTEX
  5
6CE
  8
0
  6
CONTINUOUS
 62
     7
 10
369.5288518807
 20
361.9539367462
 30
0.0
  0
VERTEX
  5
6CF
  8
0
  6
CONTINUOUS
 62
     7
 10
374.1056159647
 20
362.1662782933
 30
0.0
  0
VERTEX
  5
6D0
  8
0
  6
CONTINUOUS
 62
     7
 10
378.6292206073
 20
362.8223633821
 30
0.0
  0
VERTEX
  5
6D1
  8
0
  6
CONTINUOUS
 62
     7
 10
382.3877768168
 20
363.7566717769
 30
0.0
  0
VERTEX
  5
6D2
  8
0
  6
CONTINUOUS
 62
     7
 10
386.027944232
 20
365.0771791543
 30
0.0
  0
VERTEX
  5
6D3
  8
0
  6
CONTINUOUS
 62
     7
 10
387.7469347367
 20
365.816867208
 30
0.0
  0
VERTEX
  5
6D4
  8
0
  6
CONTINUOUS
 62
     7
 10
389.4180124203
 20
366.6565420533
 30
0.0
  0
VERTEX
  5
6D5
  8
0
  6
CONTINUOUS
 62
     7
 10
390.944429631
 20
367.7095940764
 30
0.0
  0
VERTEX
  5
6D6
  8
0
  6
CONTINUOUS
 62
     7
 10
392.6276964644
 20
369.4267498757
 30
0.0
  0
VERTEX
  5
6D7
  8
0
  6
CONTINUOUS
 62
     7
 10
393.9945017496
 20
371.4092133994
 30
0.0
  0
VERTEX
  5
6D8
  8
0
  6
CONTINUOUS
 62
     7
 10
394.963440443
 20
373.365720963
 30
0.0
  0
VERTEX
  5
6D9
  8
0
  6
CONTINUOUS
 62
     7
 10
395.706943194
 20
375.4280360843
 30
0.0
  0
VERTEX
  5
6DA
  8
0
  6
CONTINUOUS
 62
     7
 10
396.2562037209
 20
377.5469225327
 30
0.0
  0
VERTEX
  5
6DB
  8
0
  6
CONTINUOUS
 62
     7
 10
396.8191081235
 20
380.885688817
 30
0.0
  0
VERTEX
  5
6DC
  8
0
  6
CONTINUOUS
 62
     7
 10
397.1107312987
 20
384.2677988539
 30
0.0
  0
VERTEX
  5
6DD
  8
0
  6
CONTINUOUS
 62
     7
 10
397.1902718345
 20
387.6685497778
 30
0.0
  0
VERTEX
  5
6DE
  8
0
  6
CONTINUOUS
 62
     7
 10
397.1169264565
 20
391.0632396544
 30
0.0
  0
SEQEND
  5
6DF
  8
0
  6
CONTINUOUS
 62
     7
  0
POLYLINE
  5
22D
  8
0
  6
CONTINUOUS
 62
     7
 66
     1
 10
0.0
 20
0.0
 30
0.0
  0
VERTEX
  5
6E0
  8
0
  6
CONTINUOUS
 62
     7
 10
378.7015201101
 20
412.6517942603
 30
0.0
  0
VERTEX
  5
6E1
  8
0
  6
CONTINUOUS
 62
     7
 10
379.4067613358
 20
412.1830428447
 30
0.0
  0
VERTEX
  5
6E2
  8
0
  6
CONTINUOUS
 62
     7
 10
380.0291027451
 20
411.9987415577
 30
0.0
  0
SEQEND
  5
6E3
  8
0
  6
CONTINUOUS
 62
     7
  0
POLYLINE
  5
22E
  8
0
  6
CONTINUOUS
 62
     7
 66
     1
 10
0.0
 20
0.0
 30
0.0
  0
VERTEX
  5
6E4
  8
0
  6
CONTINUOUS
 62
     7
 10
378.7015201101
 20
412.6517942603
 30
0.0
  0
VERTEX
  5
6E5
  8
0
  6
CONTINUOUS
 62
     7
 10
378.1545841644
 20
414.6516194995
 30
0.0
  0
VERTEX
  5
6E6
  8
0
  6
CONTINUOUS
 62
     7
 10
377.2146896968
 20
416.657038262
 30
0.0
  0
VERTEX
  5
6E7
  8
0
  6
CONTINUOUS
 62
     7
 10
376.5938602897
 20
417.6564274783
 30
0.0
  0
VERTEX
  5
6E8
  8
0
  6
CONTINUOUS
 62
     7
 10
375.8315108294
 20
418.6442813332
 30
0.0
  0
VERTEX
  5
6E9
  8
0
  6
CONTINUOUS
 62
     7
 10
374.834869946
 20
419.6121247913
 30
0.0
  0
VERTEX
  5
6EA
  8
0
  6
CONTINUOUS
 62
     7
 10
373.5111658039
 20
420.5514809544
 30
0.0
  0
VERTEX
  5
6EB
  8
0
  6
CONTINUOUS
 62
     7
 10
372.9783456816
 20
420.857783636
 30
0.0
  0
VERTEX
  5
6EC
  8
0
  6
CONTINUOUS
 62
     7
 10
372.3310885994
 20
421.1556876506
 30
0.0
  0
VERTEX
  5
6ED
  8
0
  6
CONTINUOUS
 62
     7
 10
371.4802220507
 20
421.434648564
 30
0.0
  0
VERTEX
  5
6EE
  8
0
  6
CONTINUOUS
 62
     7
 10
370.705919298
 20
421.5980546976
 30
0.0
  0
VERTEX
  5
6EF
  8
0
  6
CONTINUOUS
 62
     7
 10
370.1751846106
 20
421.6572663243
 30
0.0
  0
VERTEX
  5
6F0
  8
0
  6
CONTINUOUS
 62
     7
 10
369.7488178709
 20
421.6740319933
 30
0.0
  0
VERTEX
  5
6F1
  8
0
  6
CONTINUOUS
 62
     7
 10
369.3173660299
 20
421.6631299312
 30
0.0
  0
VERTEX
  5
6F2
  8
0
  6
CONTINUOUS
 62
     7
 10
369.0513126362
 20
421.6424247677
 30
0.0
  0
VERTEX
  5
6F3
  8
0
  6
CONTINUOUS
 62
     7
 10
368.4833964376
 20
421.5623664166
 30
0.0
  0
VERTEX
  5
6F4
  8
0
  6
CONTINUOUS
 62
     7
 10
367.8322865904
 20
421.4113599117
 30
0.0
  0
VERTEX
  5
6F5
  8
0
  6
CONTINUOUS
 62
     7
 10
367.3221189106
 20
421.2441577072
 30
0.0
  0
VERTEX
  5
6F6
  8
0
  6
CONTINUOUS
 62
     7
 10
366.5022481742
 20
420.889897501
 30
0.0
  0
VERTEX
  5
6F7
  8
0
  6
CONTINUOUS
 62
     7
 10
365.5367693441
 20
420.3249870296
 30
0.0
  0
VERTEX
  5
6F8
  8
0
  6
CONTINUOUS
 62
     7
 10
364.4042531537
 20
419.4325639362
 30
0.0
  0
VERTEX
  5
6F9
  8
0
  6
CONTINUOUS
 62
     7
 10
363.1135983901
 20
418.0327022876
 30
0.0
  0
VERTEX
  5
6FA
  8
0
  6
CONTINUOUS
 62
     7
 10
362.2461333448
 20
416.7636821474
 30
0.0
  0
VERTEX
  5
6FB
  8
0
  6
CONTINUOUS
 62
     7
 10
361.5824663589
 20
415.4807536359
 30
0.0
  0
VERTEX
  5
6FC
  8
0
  6
CONTINUOUS
 62
     7
 10
361.0917394558
 20
414.1939675863
 30
0.0
  0
VERTEX
  5
6FD
  8
0
  6
CONTINUOUS
 62
     7
 10
360.7002645308
 20
412.6517923976
 30
0.0
  0
SEQEND
  5
6FE
  8
0
  6
CONTINUOUS
 62
     7
  0
POLYLINE
  5
22F
  8
0
  6
CONTINUOUS
 62
     7
 66
     1
 10
0.0
 20
0.0
 30
0.0
  0
VERTEX
  5
6FF
  8
0
  6
CONTINUOUS
 62
     7
 10
359.3726818959
 20
411.9987396951
 30
0.0
  0
VERTEX
  5
700
  8
0
  6
CONTINUOUS
 62
     7
 10
360.1707368667
 20
412.2694956566
 30
0.0
  0
VERTEX
  5
701
  8
0
  6
CONTINUOUS
 62
     7
 10
360.7002645308
 20
412.6517923976
 30
0.0
  0
SEQEND
  5
702
  8
0
  6
CONTINUOUS
 62
     7
  0
ARC
  5
230
  8
0
  6
CONTINUOUS
 62
     7
 10
369.7008927861
 20
403.0632396544
 30
0.0
 40
13.15110837624063
 50
46.8115100327
 51
133.1884965547
  0
ARC
  5
231
  8
0
  6
CONTINUOUS
 62
     7
 10
357.1815922969
 20
368.8325401437
 30
0.0
 40
4.230699510756058
 50
90.0
 51
265.0731200813
  0
ARC
  5
232
  8
0
  6
CONTINUOUS
 62
     7
 10
369.7008927861
 20
514.0632396544
 30
0.0
 40
150.0000000000001
 50
265.0731200813
 51
274.9268799187
  0
ARC
  5
233
  8
0
  6
CONTINUOUS
 62
     7
 10
382.2201932754
 20
368.8325401437
 30
0.0
 40
4.230699510756115
 50
274.9268799187
 51
90.0
  0
LINE
  5
234
  8
0
  6
CONTINUOUS
 62
     7
 10
357.1815918708
 20
373.0632404293
 30
0.0
 11
382.2201937014
 21
373.0632404293
 31
0.0
  0
ARC
  5
235
  8
0
  6
CONTINUOUS
 62
     7
 10
379.8004378376
 20
356.5353044195
 30
0.0
 40
2.473064140351546
 50
94.0196684763
 51
159.8566362897
  0
POLYLINE
  5
236
  8
0
  6
CONTINUOUS
 62
     7
 66
     1
 10
0.0
 20
0.0
 30
0.0
  0
VERTEX
  5
703
  8
0
  6
CONTINUOUS
 62
     7
 10
377.4786414156
 20
357.3869543577
 30
0.0
  0
VERTEX
  5
704
  8
0
  6
CONTINUOUS
 62
     7
 10
377.487208652
 20
357.414920112
 30
0.0
  0
VERTEX
  5
705
  8
0
  6
CONTINUOUS
 62
     7
 10
377.4880347351
 20
357.5237283911
 30
0.0
  0
VERTEX
  5
706
  8
0
  6
CONTINUOUS
 62
     7
 10
377.3310239936
 20
357.7193396593
 30
0.0
  0
VERTEX
  5
707
  8
0
  6
CONTINUOUS
 62
     7
 10
376.9503333183
 20
357.8861581589
 30
0.0
  0
VERTEX
  5
708
  8
0
  6
CONTINUOUS
 62
     7
 10
376.3765743511
 20
358.0084706153
 30
0.0
  0
VERTEX
  5
709
  8
0
  6
CONTINUOUS
 62
     7
 10
375.5911062049
 20
358.092431208
 30
0.0
  0
VERTEX
  5
70A
  8
0
  6
CONTINUOUS
 62
     7
 10
374.6818867089
 20
358.1362145449
 30
0.0
  0
VERTEX
  5
70B
  8
0
  6
CONTINUOUS
 62
     7
 10
373.6175549725
 20
358.1677491273
 30
0.0
  0
VERTEX
  5
70C
  8
0
  6
CONTINUOUS
 62
     7
 10
372.4327694668
 20
358.1940645779
 30
0.0
  0
VERTEX
  5
70D
  8
0
  6
CONTINUOUS
 62
     7
 10
371.1370821852
 20
358.2099119629
 30
0.0
  0
VERTEX
  5
70E
  8
0
  6
CONTINUOUS
 62
     7
 10
369.8217426877
 20
358.2146095539
 30
0.0
  0
VERTEX
  5
70F
  8
0
  6
CONTINUOUS
 62
     7
 10
368.4650884984
 20
358.2112642433
 30
0.0
  0
VERTEX
  5
710
  8
0
  6
CONTINUOUS
 62
     7
 10
367.1772579706
 20
358.1975067462
 30
0.0
  0
VERTEX
  5
711
  8
0
  6
CONTINUOUS
 62
     7
 10
365.9254472746
 20
358.1714595164
 30
0.0
  0
VERTEX
  5
712
  8
0
  6
CONTINUOUS
 62
     7
 10
364.8199401373
 20
358.1393437887
 30
0.0
  0
VERTEX
  5
713
  8
0
  6
CONTINUOUS
 62
     7
 10
363.8243213805
 20
358.0934109594
 30
0.0
  0
VERTEX
  5
714
  8
0
  6
CONTINUOUS
 62
     7
 10
363.0387754688
 20
358.0105195249
 30
0.0
  0
VERTEX
  5
715
  8
0
  6
CONTINUOUS
 62
     7
 10
362.4320150862
 20
357.8802461232
 30
0.0
  0
VERTEX
  5
716
  8
0
  6
CONTINUOUS
 62
     7
 10
362.0721390048
 20
357.7202821578
 30
0.0
  0
VERTEX
  5
717
  8
0
  6
CONTINUOUS
 62
     7
 10
361.9133759799
 20
357.5221786703
 30
0.0
  0
VERTEX
  5
718
  8
0
  6
CONTINUOUS
 62
     7
 10
361.9231446224
 20
357.3869543577
 30
0.0
  0
SEQEND
  5
719
  8
0
  6
CONTINUOUS
 62
     7
  0
ARC
  5
237
  8
0
  6
CONTINUOUS
 62
     7
 10
359.6013482991
 20
356.5353045008
 30
0.0
 40
2.473064019716126
 50
20.1433627299
 51
85.9803444342
  0
LINE
  5
238
  8
0
  6
CONTINUOUS
 62
     7
 10
377.4786414156
 20
357.3869543577
 30
0.0
 11
376.6903779047
 21
355.2212195898
 31
0.0
  0
LINE
  5
239
  8
0
  6
CONTINUOUS
 62
     7
 10
362.7114076676
 20
355.2212195898
 30
0.0
 11
376.6903779047
 21
355.2212195898
 31
0.0
  0
LINE
  5
23A
  8
0
  6
CONTINUOUS
 62
     7
 10
361.9231446224
 20
357.3869543577
 30
0.0
 11
362.7114076676
 21
355.2212195898
 31
0.0
  0
ARC
  5
23B
  8
0
  6
CONTINUOUS
 62
     7
 10
375.7506852479
 20
355.5632396544
 30
0.0
 40
1.000000000000044
 50
270.0
 51
340.0
  0
LINE
  5
23C
  8
0
  6
CONTINUOUS
 62
     7
 10
375.7506850684
 20
354.5632401909
 30
0.0
 11
363.6511005039
 21
354.5632401909
 31
0.0
  0
ARC
  5
23D
  8
0
  6
CONTINUOUS
 62
     7
 10
363.6511003244
 20
355.5632396544
 30
0.0
 40
1.000000000000044
 50
200.0
 51
270.0
  0
POLYLINE
  5
23E
  8
0
  6
CONTINUOUS
 62
     7
 66
     1
 10
0.0
 20
0.0
 30
0.0
  0
VERTEX
  5
71A
  8
0
  6
CONTINUOUS
 62
     7
 10
361.1917933027
 20
354.5701021756
 30
0.0
  0
VERTEX
  5
71B
  8
0
  6
CONTINUOUS
 62
     7
 10
361.2770754421
 20
354.5705194081
 30
0.0
  0
VERTEX
  5
71C
  8
0
  6
CONTINUOUS
 62
     7
 10
361.3827032546
 20
354.5727285053
 30
0.0
  0
VERTEX
  5
71D
  8
0
  6
CONTINUOUS
 62
     7
 10
361.5057756702
 20
354.5778545047
 30
0.0
  0
VERTEX
  5
71E
  8
0
  6
CONTINUOUS
 62
     7
 10
361.6569013844
 20
354.5883188452
 30
0.0
  0
VERTEX
  5
71F
  8
0
  6
CONTINUOUS
 62
     7
 10
361.9880303318
 20
354.6312155629
 30
0.0
  0
VERTEX
  5
720
  8
0
  6
CONTINUOUS
 62
     7
 10
362.2355674902
 20
354.6879480089
 30
0.0
  0
VERTEX
  5
721
  8
0
  6
CONTINUOUS
 62
     7
 10
362.395409918
 20
354.74538826
 30
0.0
  0
VERTEX
  5
722
  8
0
  6
CONTINUOUS
 62
     7
 10
362.5996526839
 20
354.8622170891
 30
0.0
  0
VERTEX
  5
723
  8
0
  6
CONTINUOUS
 62
     7
 10
362.6985498281
 20
354.9803870226
 30
0.0
  0
VERTEX
  5
724
  8
0
  6
CONTINUOUS
 62
     7
 10
362.7114076676
 20
355.2212195898
 30
0.0
  0
SEQEND
  5
725
  8
0
  6
CONTINUOUS
 62
     7
  0
POLYLINE
  5
23F
  8
0
  6
CONTINUOUS
 62
     7
 66
     1
 10
0.0
 20
0.0
 30
0.0
  0
VERTEX
  5
726
  8
0
  6
CONTINUOUS
 62
     7
 10
376.6903779047
 20
355.2212195898
 30
0.0
  0
VERTEX
  5
727
  8
0
  6
CONTINUOUS
 62
     7
 10
376.6832286069
 20
355.1995905544
 30
0.0
  0
VERTEX
  5
728
  8
0
  6
CONTINUOUS
 62
     7
 10
376.7177974383
 20
354.9559789206
 30
0.0
  0
VERTEX
  5
729
  8
0
  6
CONTINUOUS
 62
     7
 10
376.835461198
 20
354.8359984959
 30
0.0
  0
VERTEX
  5
72A
  8
0
  6
CONTINUOUS
 62
     7
 10
377.0782430234
 20
354.7174597586
 30
0.0
  0
VERTEX
  5
72B
  8
0
  6
CONTINUOUS
 62
     7
 10
377.2773844699
 20
354.6594532634
 30
0.0
  0
VERTEX
  5
72C
  8
0
  6
CONTINUOUS
 62
     7
 10
377.608769531
 20
354.6022439803
 30
0.0
  0
VERTEX
  5
72D
  8
0
  6
CONTINUOUS
 62
     7
 10
377.8802323664
 20
354.5787224974
 30
0.0
  0
VERTEX
  5
72E
  8
0
  6
CONTINUOUS
 62
     7
 10
377.9647294009
 20
354.5746395792
 30
0.0
  0
VERTEX
  5
72F
  8
0
  6
CONTINUOUS
 62
     7
 10
378.0559161255
 20
354.571737578
 30
0.0
  0
VERTEX
  5
730
  8
0
  6
CONTINUOUS
 62
     7
 10
378.0685411344
 20
354.571454456
 30
0.0
  0
VERTEX
  5
731
  8
0
  6
CONTINUOUS
 62
     7
 10
378.1634885395
 20
354.5701804067
 30
0.0
  0
VERTEX
  5
732
  8
0
  6
CONTINUOUS
 62
     7
 10
378.2099922696
 20
354.5701021756
 30
0.0
  0
SEQEND
  5
733
  8
0
  6
CONTINUOUS
 62
     7
  0
LINE
  5
240
  8
0
  6
CONTINUOUS
 62
     7
 10
377.9933880592
 20
354.5632401909
 30
0.0
 11
375.7506850684
 21
354.5632401909
 31
0.0
  0
LINE
  5
241
  8
0
  6
CONTINUOUS
 62
     7
 10
363.6511005039
 20
354.5632401909
 30
0.0
 11
361.4083975131
 21
354.5632401909
 31
0.0
  0
ARC
  5
242
  8
0
  6
CONTINUOUS
 62
     7
 10
386.8456285216
 20
401.3238028311
 30
0.0
 40
22.50000106112839
 50
0.0000004254
 51
89.9999948314
  0
LINE
  5
243
  8
0
  6
CONTINUOUS
 62
     7
 10
409.3456295828
 20
360.8857395555
 30
0.0
 11
409.3456295828
 21
401.3238029982
 31
0.0
  0
ARC
  5
244
  8
0
  6
CONTINUOUS
 62
     7
 10
401.8456270996
 20
360.8857417407
 30
0.0
 40
7.500002483193191
 50
270.0000166935
 51
359.9999833065
  0
LINE
  5
245
  8
0
  6
CONTINUOUS
 62
     7
 10
337.5561562876
 20
353.3857392575
 30
0.0
 11
401.8456292847
 21
353.3857392575
 31
0.0
  0
ARC
  5
246
  8
0
  6
CONTINUOUS
 62
     7
 10
337.5561584727
 20
360.8857417407
 30
0.0
 40
7.500002483193247
 50
180.0000166935
 51
269.9999833065
  0
LINE
  5
247
  8
0
  6
CONTINUOUS
 62
     7
 10
330.0561559895
 20
401.3238029982
 30
0.0
 11
330.0561559895
 21
360.8857395555
 31
0.0
  0
ARC
  5
248
  8
0
  6
CONTINUOUS
 62
     7
 10
352.5561570507
 20
401.3238028311
 30
0.0
 40
22.50000106112839
 50
90.0000051686
 51
179.9999995746
  0
LINE
  5
249
  8
0
  6
CONTINUOUS
 62
     7
 10
386.8456305513
 20
423.8238038923
 30
0.0
 11
352.556155021
 21
423.8238038923
 31
0.0
  0
INSERT
  5
24F
  8
0
  6
CONTINUOUS
 62
     7
  2
SW_NOTE_2
 10
340.3324884871
 20
341.7264895357
 30
0.0
  0
INSERT
  5
257
  8
0
  6
CONTINUOUS
 62
     7
  2
SW_CENTERMARKSYMBOL_4
 10
375.7506852479
 20
355.5632396544
 30
0.0
  0
INSERT
  5
25F
  8
0
  6
CONTINUOUS
 62
     7
  2
SW_CENTERMARKSYMBOL_5
 10
363.6511003244
 20
355.5632396544
 30
0.0
  0
INSERT
  5
267
  8
0
  6
CONTINUOUS
 62
     7
  2
SW_CENTERMARKSYMBOL_6
 10
369.7008927861
 20
403.0632396544
 30
0.0
  0
LINE
  5
268
  8
0
  6
CONTINUOUS
 62
     7
 10
438.6329995386
 20
401.6043825502
 30
0.0
 11
449.5049295864
 21
412.4763125981
 31
0.0
  0
LINE
  5
269
  8
0
  6
CONTINUOUS
 62
     7
 10
437.9765288822
 20
396.4577836412
 30
0.0
 11
455.5539851926
 21
414.0352404172
 31
0.0
  0
LINE
  5
26A
  8
0
  6
CONTINUOUS
 62
     7
 10
438.244863405
 20
392.2359904935
 30
0.0
 11
462.0839566841
 21
416.0750845875
 31
0.0
  0
LINE
  5
26B
  8
0
  6
CONTINUOUS
 62
     7
 10
438.0526645026
 20
387.553664619
 30
0.0
 11
468.0646599362
 21
417.5656589176
 31
0.0
  0
LINE
  5
26C
  8
0
  6
CONTINUOUS
 62
     7
 10
437.793630167
 20
382.8045020307
 30
0.0
 11
472.1067424315
 21
417.1176145281
 31
0.0
  0
LINE
  5
26D
  8
0
  6
CONTINUOUS
 62
     7
 10
437.8354651771
 20
378.3562083225
 30
0.0
 11
475.3397903322
 21
415.8605339433
 31
0.0
  0
LINE
  5
26E
  8
0
  6
CONTINUOUS
 62
     7
 10
438.1046118132
 20
374.1352281029
 30
0.0
 11
478.4059030853
 21
414.436519375
 31
0.0
  0
LINE
  5
26F
  8
0
  6
CONTINUOUS
 62
     7
 10
438.6844513855
 20
370.2249398882
 30
0.0
 11
482.3268232784
 21
413.8673099185
 31
0.0
  0
LINE
  5
270
  8
0
  6
CONTINUOUS
 62
     7
 10
439.8647071711
 20
366.9150660242
 30
0.0
 11
485.9385201625
 21
412.9888790156
 31
0.0
  0
LINE
  5
271
  8
0
  6
CONTINUOUS
 62
     7
 10
441.8577952228
 20
364.4180262889
 30
0.0
 11
489.1488021157
 21
411.7090331818
 31
0.0
  0
LINE
  5
272
  8
0
  6
CONTINUOUS
 62
     7
 10
444.6192802779
 20
362.689383557
 30
0.0
 11
491.9653357855
 21
410.0354390646
 31
0.0
  0
LINE
  5
273
  8
0
  6
CONTINUOUS
 62
     7
 10
447.9168439201
 20
361.4968194122
 30
0.0
 11
494.4127378903
 21
407.9927115197
 31
0.0
  0
LINE
  5
274
  8
0
  6
CONTINUOUS
 62
     7
 10
451.5937501482
 20
360.6835959907
 30
0.0
 11
496.4234502903
 21
405.5132970641
 31
0.0
  0
LINE
  5
275
  8
0
  6
CONTINUOUS
 62
     7
 10
455.4364830173
 20
360.0362020041
 30
0.0
 11
497.9763785295
 21
402.5760984476
 31
0.0
  0
LINE
  5
276
  8
0
  6
CONTINUOUS
 62
     7
 10
459.393199525
 20
359.5027888621
 30
0.0
 11
498.9262586377
 21
399.0358498375
 31
0.0
  0
LINE
  5
277
  8
0
  6
CONTINUOUS
 62
     7
 10
461.8161190219
 20
357.435580572
 30
0.0
 11
498.9367583684
 21
394.5562215484
 31
0.0
  0
LINE
  5
278
  8
0
  6
CONTINUOUS
 62
     7
 10
463.5153748012
 20
354.6447085644
 30
0.0
 11
498.761671587
 21
389.8910070964
 31
0.0
  0
LINE
  5
279
  8
0
  6
CONTINUOUS
 62
     7
 10
467.9240330505
 20
354.5632401909
 30
0.0
 11
499.0739216945
 21
385.713128602
 31
0.0
  0
LINE
  5
27A
  8
0
  6
CONTINUOUS
 62
     7
 10
477.2570030681
 20
359.406080326
 30
0.0
 11
499.1851234726
 21
381.3342025931
 31
0.0
  0
LINE
  5
27B
  8
0
  6
CONTINUOUS
 62
     7
 10
472.4141610704
 20
354.5632401909
 30
0.0
 11
475.1156177289
 21
357.2646977807
 31
0.0
  0
LINE
  5
27C
  8
0
  6
CONTINUOUS
 62
     7
 10
482.4373321525
 20
360.0962816234
 30
0.0
 11
499.0894654683
 21
376.7484168018
 31
0.0
  0
LINE
  5
27D
  8
0
  6
CONTINUOUS
 62
     7
 10
488.0165336571
 20
361.1853572036
 30
0.0
 11
498.6552512191
 21
371.8240729029
 31
0.0
  0
POLYLINE
  5
27E
  8
0
  6
CONTINUOUS
 62
     7
 66
     1
 10
0.0
 20
0.0
 30
0.0
  0
VERTEX
  5
734
  8
0
  6
CONTINUOUS
 62
     7
 10
458.9796829886
 20
414.4843800421
 30
0.0
  0
VERTEX
  5
735
  8
0
  6
CONTINUOUS
 62
     7
 10
459.8491536371
 20
416.184624886
 30
0.0
  0
VERTEX
  5
736
  8
0
  6
CONTINUOUS
 62
     7
 10
461.0385261393
 20
417.8520033563
 30
0.0
  0
VERTEX
  5
737
  8
0
  6
CONTINUOUS
 62
     7
 10
461.716668672
 20
418.6017943974
 30
0.0
  0
VERTEX
  5
738
  8
0
  6
CONTINUOUS
 62
     7
 10
462.5080330215
 20
419.3383010532
 30
0.0
  0
VERTEX
  5
739
  8
0
  6
CONTINUOUS
 62
     7
 10
463.7913852847
 20
420.2806188221
 30
0.0
  0
VERTEX
  5
73A
  8
0
  6
CONTINUOUS
 62
     7
 10
464.8838587954
 20
420.8750000651
 30
0.0
  0
VERTEX
  5
73B
  8
0
  6
CONTINUOUS
 62
     7
 10
465.8113215036
 20
421.2468920703
 30
0.0
  0
VERTEX
  5
73C
  8
0
  6
CONTINUOUS
 62
     7
 10
466.3949294399
 20
421.4235658254
 30
0.0
  0
VERTEX
  5
73D
  8
0
  6
CONTINUOUS
 62
     7
 10
467.1252000761
 20
421.5803726072
 30
0.0
  0
VERTEX
  5
73E
  8
0
  6
CONTINUOUS
 62
     7
 10
467.7678687648
 20
421.664186051
 30
0.0
  0
VERTEX
  5
73F
  8
0
  6
CONTINUOUS
 62
     7
 10
468.0689609294
 20
421.68585979
 30
0.0
  0
VERTEX
  5
740
  8
0
  6
CONTINUOUS
 62
     7
 10
468.5572470652
 20
421.6972666289
 30
0.0
  0
VERTEX
  5
741
  8
0
  6
CONTINUOUS
 62
     7
 10
469.0397759468
 20
421.6797223742
 30
0.0
  0
VERTEX
  5
742
  8
0
  6
CONTINUOUS
 62
     7
 10
469.6403887273
 20
421.6177391316
 30
0.0
  0
VERTEX
  5
743
  8
0
  6
CONTINUOUS
 62
     7
 10
470.1122509931
 20
421.5377962644
 30
0.0
  0
VERTEX
  5
744
  8
0
  6
CONTINUOUS
 62
     7
 10
470.5165242694
 20
421.446589982
 30
0.0
  0
VERTEX
  5
745
  8
0
  6
CONTINUOUS
 62
     7
 10
471.468790426
 20
421.1569747384
 30
0.0
  0
VERTEX
  5
746
  8
0
  6
CONTINUOUS
 62
     7
 10
472.2046733286
 20
420.8435344006
 30
0.0
  0
VERTEX
  5
747
  8
0
  6
CONTINUOUS
 62
     7
 10
472.8141515433
 20
420.5191268082
 30
0.0
  0
VERTEX
  5
748
  8
0
  6
CONTINUOUS
 62
     7
 10
474.3079808458
 20
419.5315057839
 30
0.0
  0
VERTEX
  5
749
  8
0
  6
CONTINUOUS
 62
     7
 10
475.4407727077
 20
418.5060209091
 30
0.0
  0
VERTEX
  5
74A
  8
0
  6
CONTINUOUS
 62
     7
 10
476.3150564312
 20
417.452685764
 30
0.0
  0
VERTEX
  5
74B
  8
0
  6
CONTINUOUS
 62
     7
 10
477.033360853
 20
416.381508341
 30
0.0
  0
VERTEX
  5
74C
  8
0
  6
CONTINUOUS
 62
     7
 10
478.0263332567
 20
414.4843819047
 30
0.0
  0
SEQEND
  5
74D
  8
0
  6
CONTINUOUS
 62
     7
  0
POLYLINE
  5
27F
  8
0
  6
CONTINUOUS
 62
     7
 66
     1
 10
0.0
 20
0.0
 30
0.0
  0
VERTEX
  5
74E
  8
0
  6
CONTINUOUS
 62
     7
 10
458.9796829886
 20
414.4843800421
 30
0.0
  0
VERTEX
  5
74F
  8
0
  6
CONTINUOUS
 62
     7
 10
458.8119964964
 20
414.4656660463
 30
0.0
  0
VERTEX
  5
750
  8
0
  6
CONTINUOUS
 62
     7
 10
455.6996459059
 20
414.0634762551
 30
0.0
  0
VERTEX
  5
751
  8
0
  6
CONTINUOUS
 62
     7
 10
452.6186743669
 20
413.4662228133
 30
0.0
  0
VERTEX
  5
752
  8
0
  6
CONTINUOUS
 62
     7
 10
449.6359536342
 20
412.5392420645
 30
0.0
  0
VERTEX
  5
753
  8
0
  6
CONTINUOUS
 62
     7
 10
447.6062757812
 20
411.6275201048
 30
0.0
  0
VERTEX
  5
754
  8
0
  6
CONTINUOUS
 62
     7
 10
445.6765698186
 20
410.5088638569
 30
0.0
  0
VERTEX
  5
755
  8
0
  6
CONTINUOUS
 62
     7
 10
443.888432338
 20
409.1882428582
 30
0.0
  0
VERTEX
  5
756
  8
0
  6
CONTINUOUS
 62
     7
 10
442.2594988636
 20
407.6491279955
 30
0.0
  0
VERTEX
  5
757
  8
0
  6
CONTINUOUS
 62
     7
 10
440.8305296592
 20
405.9117550458
 30
0.0
  0
VERTEX
  5
758
  8
0
  6
CONTINUOUS
 62
     7
 10
439.6473960868
 20
404.0108856241
 30
0.0
  0
VERTEX
  5
759
  8
0
  6
CONTINUOUS
 62
     7
 10
438.7102266691
 20
401.8897230233
 30
0.0
  0
VERTEX
  5
75A
  8
0
  6
CONTINUOUS
 62
     7
 10
438.1048874847
 20
399.6530913244
 30
0.0
  0
VERTEX
  5
75B
  8
0
  6
CONTINUOUS
 62
     7
 10
437.961769282
 20
398.5105936843
 30
0.0
  0
VERTEX
  5
75C
  8
0
  6
CONTINUOUS
 62
     7
 10
437.9390450112
 20
397.3587963226
 30
0.0
  0
VERTEX
  5
75D
  8
0
  6
CONTINUOUS
 62
     7
 10
438.0340864799
 20
395.074214084
 30
0.0
  0
VERTEX
  5
75E
  8
0
  6
CONTINUOUS
 62
     7
 10
438.3319551043
 20
391.0632396544
 30
0.0
  0
SEQEND
  5
75F
  8
0
  6
CONTINUOUS
 62
     7
  0
LINE
  5
280
  8
0
  6
CONTINUOUS
 62
     7
 10
430.7530103169
 20
391.0632396544
 30
0.0
 11
438.3319551043
 21
391.0632396544
 31
0.0
  0
LINE
  5
281
  8
0
  6
CONTINUOUS
 62
     7
 10
430.7530103169
 20
402.0632395948
 30
0.0
 11
430.7530103169
 21
391.0632396544
 31
0.0
  0
POLYLINE
  5
282
  8
0
  6
CONTINUOUS
 62
     7
 66
     1
 10
0.0
 20
0.0
 30
0.0
  0
VERTEX
  5
760
  8
0
  6
CONTINUOUS
 62
     7
 10
454.7530086628
 20
422.0632391478
 30
0.0
  0
VERTEX
  5
761
  8
0
  6
CONTINUOUS
 62
     7
 10
451.8489027313
 20
421.916404968
 30
0.0
  0
VERTEX
  5
762
  8
0
  6
CONTINUOUS
 62
     7
 10
448.7831583164
 20
421.4343673046
 30
0.0
  0
VERTEX
  5
763
  8
0
  6
CONTINUOUS
 62
     7
 10
445.6433327786
 20
420.5668328757
 30
0.0
  0
VERTEX
  5
764
  8
0
  6
CONTINUOUS
 62
     7
 10
443.3150393806
 20
419.6453953589
 30
0.0
  0
VERTEX
  5
765
  8
0
  6
CONTINUOUS
 62
     7
 10
441.0795969806
 20
418.5004925783
 30
0.0
  0
VERTEX
  5
766
  8
0
  6
CONTINUOUS
 62
     7
 10
438.9997506432
 20
417.1512781138
 30
0.0
  0
VERTEX
  5
767
  8
0
  6
CONTINUOUS
 62
     7
 10
437.1234504423
 20
415.6344386245
 30
0.0
  0
VERTEX
  5
768
  8
0
  6
CONTINUOUS
 62
     7
 10
435.488942071
 20
413.9914831574
 30
0.0
  0
VERTEX
  5
769
  8
0
  6
CONTINUOUS
 62
     7
 10
434.1104170225
 20
412.2656455691
 30
0.0
  0
VERTEX
  5
76A
  8
0
  6
CONTINUOUS
 62
     7
 10
432.9922450624
 20
410.49873293
 30
0.0
  0
VERTEX
  5
76B
  8
0
  6
CONTINUOUS
 62
     7
 10
432.1235446177
 20
408.7251482959
 30
0.0
  0
VERTEX
  5
76C
  8
0
  6
CONTINUOUS
 62
     7
 10
431.4881106756
 20
406.9752844478
 30
0.0
  0
VERTEX
  5
76D
  8
0
  6
CONTINUOUS
 62
     7
 10
431.063740506
 20
405.2709361966
 30
0.0
  0
VERTEX
  5
76E
  8
0
  6
CONTINUOUS
 62
     7
 10
430.8266928337
 20
403.6299840043
 30
0.0
  0
VERTEX
  5
76F
  8
0
  6
CONTINUOUS
 62
     7
 10
430.7530103169
 20
402.0632395948
 30
0.0
  0
SEQEND
  5
770
  8
0
  6
CONTINUOUS
 62
     7
  0
LINE
  5
283
  8
0
  6
CONTINUOUS
 62
     7
 10
468.5030085883
 20
422.0632391478
 30
0.0
 11
454.7530086628
 21
422.0632391478
 31
0.0
  0
LINE
  5
284
  8
0
  6
CONTINUOUS
 62
     7
 10
482.2530085138
 20
422.0632391478
 30
0.0
 11
468.5030085883
 21
422.0632391478
 31
0.0
  0
POLYLINE
  5
285
  8
0
  6
CONTINUOUS
 62
     7
 66
     1
 10
0.0
 20
0.0
 30
0.0
  0
VERTEX
  5
771
  8
0
  6
CONTINUOUS
 62
     7
 10
506.2530068598
 20
402.0632395948
 30
0.0
  0
VERTEX
  5
772
  8
0
  6
CONTINUOUS
 62
     7
 10
506.179324343
 20
403.629985867
 30
0.0
  0
VERTEX
  5
773
  8
0
  6
CONTINUOUS
 62
     7
 10
505.9422729454
 20
405.2709389905
 30
0.0
  0
VERTEX
  5
774
  8
0
  6
CONTINUOUS
 62
     7
 10
505.5179065011
 20
406.9752881731
 30
0.0
  0
VERTEX
  5
775
  8
0
  6
CONTINUOUS
 62
     7
 10
504.882472559
 20
408.7251538838
 30
0.0
  0
VERTEX
  5
776
  8
0
  6
CONTINUOUS
 62
     7
 10
504.013768389
 20
410.4987385179
 30
0.0
  0
VERTEX
  5
777
  8
0
  6
CONTINUOUS
 62
     7
 10
502.8955964289
 20
412.2656492944
 30
0.0
  0
VERTEX
  5
778
  8
0
  6
CONTINUOUS
 62
     7
 10
501.5170713804
 20
413.9914887453
 30
0.0
  0
VERTEX
  5
779
  8
0
  6
CONTINUOUS
 62
     7
 10
499.882563009
 20
415.6344423498
 30
0.0
  0
VERTEX
  5
77A
  8
0
  6
CONTINUOUS
 62
     7
 10
498.0062628082
 20
417.1512799765
 30
0.0
  0
VERTEX
  5
77B
  8
0
  6
CONTINUOUS
 62
     7
 10
495.9264183334
 20
418.5004925783
 30
0.0
  0
VERTEX
  5
77C
  8
0
  6
CONTINUOUS
 62
     7
 10
493.6909777961
 20
419.6453953589
 30
0.0
  0
VERTEX
  5
77D
  8
0
  6
CONTINUOUS
 62
     7
 10
491.3626862607
 20
420.5668328757
 30
0.0
  0
VERTEX
  5
77E
  8
0
  6
CONTINUOUS
 62
     7
 10
488.2228607229
 20
421.4343673046
 30
0.0
  0
VERTEX
  5
77F
  8
0
  6
CONTINUOUS
 62
     7
 10
485.157116308
 20
421.916404968
 30
0.0
  0
VERTEX
  5
780
  8
0
  6
CONTINUOUS
 62
     7
 10
482.2530085138
 20
422.0632391478
 30
0.0
  0
SEQEND
  5
781
  8
0
  6
CONTINUOUS
 62
     7
  0
LINE
  5
286
  8
0
  6
CONTINUOUS
 62
     7
 10
506.2530068598
 20
391.0632396544
 30
0.0
 11
506.2530068598
 21
402.0632395948
 31
0.0
  0
LINE
  5
287
  8
0
  6
CONTINUOUS
 62
     7
 10
498.6740620724
 20
391.0632396544
 30
0.0
 11
506.2530068598
 21
391.0632396544
 31
0.0
  0
POLYLINE
  5
288
  8
0
  6
CONTINUOUS
 62
     7
 66
     1
 10
0.0
 20
0.0
 30
0.0
  0
VERTEX
  5
782
  8
0
  6
CONTINUOUS
 62
     7
 10
498.6740620724
 20
391.0632396544
 30
0.0
  0
VERTEX
  5
783
  8
0
  6
CONTINUOUS
 62
     7
 10
498.8872157327
 20
393.6254254038
 30
0.0
  0
VERTEX
  5
784
  8
0
  6
CONTINUOUS
 62
     7
 10
499.0238537929
 20
396.1925248112
 30
0.0
  0
VERTEX
  5
785
  8
0
  6
CONTINUOUS
 62
     7
 10
499.0290207706
 20
397.9347695093
 30
0.0
  0
VERTEX
  5
786
  8
0
  6
CONTINUOUS
 62
     7
 10
498.8635210238
 20
399.6714989151
 30
0.0
  0
VERTEX
  5
787
  8
0
  6
CONTINUOUS
 62
     7
 10
498.4724158339
 20
401.3610307555
 30
0.0
  0
VERTEX
  5
788
  8
0
  6
CONTINUOUS
 62
     7
 10
497.5141500972
 20
403.708354799
 30
0.0
  0
VERTEX
  5
789
  8
0
  6
CONTINUOUS
 62
     7
 10
496.202365487
 20
405.879159687
 30
0.0
  0
VERTEX
  5
78A
  8
0
  6
CONTINUOUS
 62
     7
 10
494.453650891
 20
407.9568127598
 30
0.0
  0
VERTEX
  5
78B
  8
0
  6
CONTINUOUS
 62
     7
 10
492.4114281229
 20
409.7488152291
 30
0.0
  0
VERTEX
  5
78C
  8
0
  6
CONTINUOUS
 62
     7
 10
489.8858768783
 20
411.3715386446
 30
0.0
  0
VERTEX
  5
78D
  8
0
  6
CONTINUOUS
 62
     7
 10
487.1547119609
 20
412.6220943834
 30
0.0
  0
VERTEX
  5
78E
  8
0
  6
CONTINUOUS
 62
     7
 10
484.1834036551
 20
413.5181906129
 30
0.0
  0
VERTEX
  5
78F
  8
0
  6
CONTINUOUS
 62
     7
 10
481.1194799758
 20
414.0943440105
 30
0.0
  0
VERTEX
  5
790
  8
0
  6
CONTINUOUS
 62
     7
 10
478.0263332567
 20
414.4843819047
 30
0.0
  0
SEQEND
  5
791
  8
0
  6
CONTINUOUS
 62
     7
  0
POLYLINE
  5
289
  8
0
  6
CONTINUOUS
 62
     7
 66
     1
 10
0.0
 20
0.0
 30
0.0
  0
VERTEX
  5
792
  8
0
  6
CONTINUOUS
 62
     7
 10
458.5768226451
 20
359.0022849346
 30
0.0
  0
VERTEX
  5
793
  8
0
  6
CONTINUOUS
 62
     7
 10
458.5887174971
 20
359.1364847924
 30
0.0
  0
VERTEX
  5
794
  8
0
  6
CONTINUOUS
 62
     7
 10
458.8175481103
 20
359.3286836947
 30
0.0
  0
VERTEX
  5
795
  8
0
  6
CONTINUOUS
 62
     7
 10
459.3144664458
 20
359.4934346582
 30
0.0
  0
VERTEX
  5
796
  8
0
  6
CONTINUOUS
 62
     7
 10
459.3697227455
 20
359.5059553589
 30
0.0
  0
SEQEND
  5
797
  8
0
  6
CONTINUOUS
 62
     7
  0
POLYLINE
  5
28A
  8
0
  6
CONTINUOUS
 62
     7
 66
     1
 10
0.0
 20
0.0
 30
0.0
  0
VERTEX
  5
798
  8
0
  6
CONTINUOUS
 62
     7
 10
459.9939091048
 20
354.5701021756
 30
0.0
  0
VERTEX
  5
799
  8
0
  6
CONTINUOUS
 62
     7
 10
459.0484248392
 20
357.4428895916
 30
0.0
  0
VERTEX
  5
79A
  8
0
  6
CONTINUOUS
 62
     7
 10
458.5768226451
 20
359.0022849346
 30
0.0
  0
SEQEND
  5
79B
  8
0
  6
CONTINUOUS
 62
     7
  0
ARC
  5
28B
  8
0
  6
CONTINUOUS
 62
     7
 10
460.1916650357
 20
357.3903550044
 30
0.0
 40
2.827177643279479
 50
265.9889891423
 51
270.3819833806
  0
LINE
  5
28C
  8
0
  6
CONTINUOUS
 62
     7
 10
459.9962476558
 20
354.5632401909
 30
0.0
 11
460.2105133153
 21
354.5632401909
 31
0.0
  0
LINE
  5
28D
  8
0
  6
CONTINUOUS
 62
     7
 10
438.2189335219
 20
354.5632401909
 30
0.0
 11
459.9962476558
 21
354.5632401909
 31
0.0
  0
ARC
  5
28E
  8
0
  6
CONTINUOUS
 62
     7
 10
438.2029001014
 20
362.0871578611
 30
0.0
 40
7.52393475375843
 50
233.0702194654
 51
270.1220967556
  0
POLYLINE
  5
28F
  8
0
  6
CONTINUOUS
 62
     7
 66
     1
 10
0.0
 20
0.0
 30
0.0
  0
VERTEX
  5
79C
  8
0
  6
CONTINUOUS
 62
     7
 10
432.2751713834
 20
357.468098631
 30
0.0
  0
VERTEX
  5
79D
  8
0
  6
CONTINUOUS
 62
     7
 10
432.9255027614
 20
356.7295821811
 30
0.0
  0
VERTEX
  5
79E
  8
0
  6
CONTINUOUS
 62
     7
 10
433.682250782
 20
356.0727315451
 30
0.0
  0
SEQEND
  5
79F
  8
0
  6
CONTINUOUS
 62
     7
  0
ARC
  5
290
  8
0
  6
CONTINUOUS
 62
     7
 10
438.1345820844
 20
361.9575304449
 30
0.0
 40
7.381577864803018
 50
179.9263568127
 51
217.4590360158
  0
LINE
  5
291
  8
0
  6
CONTINUOUS
 62
     7
 10
430.7530103169
 20
391.0632396544
 30
0.0
 11
430.7530103169
 21
361.9670181031
 31
0.0
  0
POLYLINE
  5
292
  8
0
  6
CONTINUOUS
 62
     7
 66
     1
 10
0.0
 20
0.0
 30
0.0
  0
VERTEX
  5
7A0
  8
0
  6
CONTINUOUS
 62
     7
 10
438.3319551043
 20
391.0632396544
 30
0.0
  0
VERTEX
  5
7A1
  8
0
  6
CONTINUOUS
 62
     7
 10
437.9148362122
 20
385.8216952029
 30
0.0
  0
VERTEX
  5
7A2
  8
0
  6
CONTINUOUS
 62
     7
 10
437.7686986617
 20
382.8159945513
 30
0.0
  0
VERTEX
  5
7A3
  8
0
  6
CONTINUOUS
 62
     7
 10
437.7359626732
 20
379.8067553396
 30
0.0
  0
VERTEX
  5
7A4
  8
0
  6
CONTINUOUS
 62
     7
 10
437.8889007411
 20
376.8056018705
 30
0.0
  0
VERTEX
  5
7A5
  8
0
  6
CONTINUOUS
 62
     7
 10
438.0699591629
 20
374.540489396
 30
0.0
  0
VERTEX
  5
7A6
  8
0
  6
CONTINUOUS
 62
     7
 10
438.2916474632
 20
372.2706066872
 30
0.0
  0
VERTEX
  5
7A7
  8
0
  6
CONTINUOUS
 62
     7
 10
438.6796122334
 20
370.0418195183
 30
0.0
  0
VERTEX
  5
7A8
  8
0
  6
CONTINUOUS
 62
     7
 10
439.359498202
 20
367.9000011141
 30
0.0
  0
VERTEX
  5
7A9
  8
0
  6
CONTINUOUS
 62
     7
 10
440.0990148924
 20
366.4582709278
 30
0.0
  0
VERTEX
  5
7AA
  8
0
  6
CONTINUOUS
 62
     7
 10
441.0675624303
 20
365.1612012143
 30
0.0
  0
VERTEX
  5
7AB
  8
0
  6
CONTINUOUS
 62
     7
 10
442.244810044
 20
364.0540561135
 30
0.0
  0
VERTEX
  5
7AC
  8
0
  6
CONTINUOUS
 62
     7
 10
443.5746883891
 20
363.132044902
 30
0.0
  0
VERTEX
  5
7AD
  8
0
  6
CONTINUOUS
 62
     7
 10
445.1909614644
 20
362.3095343317
 30
0.0
  0
VERTEX
  5
7AE
  8
0
  6
CONTINUOUS
 62
     7
 10
446.9058057211
 20
361.7204299624
 30
0.0
  0
VERTEX
  5
7AF
  8
0
  6
CONTINUOUS
 62
     7
 10
451.0162388823
 20
360.7514968569
 30
0.0
  0
VERTEX
  5
7B0
  8
0
  6
CONTINUOUS
 62
     7
 10
455.1771692849
 20
360.0111214871
 30
0.0
  0
VERTEX
  5
7B1
  8
0
  6
CONTINUOUS
 62
     7
 10
459.3697227455
 20
359.5059553589
 30
0.0
  0
SEQEND
  5
7B2
  8
0
  6
CONTINUOUS
 62
     7
  0
LINE
  5
293
  8
0
  6
CONTINUOUS
 62
     7
 10
506.2530068598
 20
361.9670181031
 30
0.0
 11
506.2530068598
 21
391.0632396544
 31
0.0
  0
ARC
  5
294
  8
0
  6
CONTINUOUS
 62
     7
 10
498.8712451042
 20
361.9575723589
 30
0.0
 40
7.38176779901466
 50
322.6718305124
 51
0.0733159645
  0
POLYLINE
  5
295
  8
0
  6
CONTINUOUS
 62
     7
 66
     1
 10
0.0
 20
0.0
 30
0.0
  0
VERTEX
  5
7B3
  8
0
  6
CONTINUOUS
 62
     7
 10
503.3237663946
 20
356.0727315451
 30
0.0
  0
VERTEX
  5
7B4
  8
0
  6
CONTINUOUS
 62
     7
 10
504.0735034189
 20
356.7226158882
 30
0.0
  0
VERTEX
  5
7B5
  8
0
  6
CONTINUOUS
 62
     7
 10
504.7410456381
 20
357.4814202691
 30
0.0
  0
SEQEND
  5
7B6
  8
0
  6
CONTINUOUS
 62
     7
  0
ARC
  5
296
  8
0
  6
CONTINUOUS
 62
     7
 10
498.8037088756
 20
362.0853792419
 30
0.0
 40
7.522157423259581
 50
269.8733666805
 51
306.9343170985
  0
LINE
  5
297
  8
0
  6
CONTINUOUS
 62
     7
 10
477.0097695208
 20
354.5632401909
 30
0.0
 11
498.7870836548
 21
354.5632401909
 31
0.0
  0
LINE
  5
298
  8
0
  6
CONTINUOUS
 62
     7
 10
476.7955038614
 20
354.5632401909
 30
0.0
 11
477.0097695208
 21
354.5632401909
 31
0.0
  0
ARC
  5
299
  8
0
  6
CONTINUOUS
 62
     7
 10
476.813502112
 20
357.4171868731
 30
0.0
 40
2.854003434178351
 50
269.6386722528
 51
273.9903552243
  0
POLYLINE
  5
29A
  8
0
  6
CONTINUOUS
 62
     7
 66
     1
 10
0.0
 20
0.0
 30
0.0
  0
VERTEX
  5
7B7
  8
0
  6
CONTINUOUS
 62
     7
 10
478.4291945315
 20
359.0022849346
 30
0.0
  0
VERTEX
  5
7B8
  8
0
  6
CONTINUOUS
 62
     7
 10
477.9575951315
 20
357.4429007675
 30
0.0
  0
VERTEX
  5
7B9
  8
0
  6
CONTINUOUS
 62
     7
 10
477.0121080718
 20
354.5701021756
 30
0.0
  0
SEQEND
  5
7BA
  8
0
  6
CONTINUOUS
 62
     7
  0
POLYLINE
  5
29B
  8
0
  6
CONTINUOUS
 62
     7
 66
     1
 10
0.0
 20
0.0
 30
0.0
  0
VERTEX
  5
7BB
  8
0
  6
CONTINUOUS
 62
     7
 10
477.6362944312
 20
359.5059553589
 30
0.0
  0
VERTEX
  5
7BC
  8
0
  6
CONTINUOUS
 62
     7
 10
477.6657773099
 20
359.4993653203
 30
0.0
  0
VERTEX
  5
7BD
  8
0
  6
CONTINUOUS
 62
     7
 10
478.1738296069
 20
359.3352141286
 30
0.0
  0
VERTEX
  5
7BE
  8
0
  6
CONTINUOUS
 62
     7
 10
478.4165378577
 20
359.1380270625
 30
0.0
  0
VERTEX
  5
7BF
  8
0
  6
CONTINUOUS
 62
     7
 10
478.4351456828
 20
359.0300234462
 30
0.0
  0
VERTEX
  5
7C0
  8
0
  6
CONTINUOUS
 62
     7
 10
478.4291945315
 20
359.0022849346
 30
0.0
  0
SEQEND
  5
7C1
  8
0
  6
CONTINUOUS
 62
     7
  0
POLYLINE
  5
29C
  8
0
  6
CONTINUOUS
 62
     7
 66
     1
 10
0.0
 20
0.0
 30
0.0
  0
VERTEX
  5
7C2
  8
0
  6
CONTINUOUS
 62
     7
 10
477.6362944312
 20
359.5059553589
 30
0.0
  0
VERTEX
  5
7C3
  8
0
  6
CONTINUOUS
 62
     7
 10
477.6599444366
 20
359.5081272031
 30
0.0
  0
VERTEX
  5
7C4
  8
0
  6
CONTINUOUS
 62
     7
 10
482.7673919416
 20
360.1369170899
 30
0.0
  0
VERTEX
  5
7C5
  8
0
  6
CONTINUOUS
 62
     7
 10
487.8136264078
 20
361.1345349307
 30
0.0
  0
VERTEX
  5
7C6
  8
0
  6
CONTINUOUS
 62
     7
 10
489.3500050447
 20
361.5065014417
 30
0.0
  0
VERTEX
  5
7C7
  8
0
  6
CONTINUOUS
 62
     7
 10
490.8688114873
 20
361.9422709997
 30
0.0
  0
VERTEX
  5
7C8
  8
0
  6
CONTINUOUS
 62
     7
 10
492.3262735746
 20
362.5319378878
 30
0.0
  0
VERTEX
  5
7C9
  8
0
  6
CONTINUOUS
 62
     7
 10
494.0183786593
 20
363.508336475
 30
0.0
  0
VERTEX
  5
7CA
  8
0
  6
CONTINUOUS
 62
     7
 10
495.5318840138
 20
364.7362182344
 30
0.0
  0
VERTEX
  5
7CB
  8
0
  6
CONTINUOUS
 62
     7
 10
496.5847758494
 20
365.9738881941
 30
0.0
  0
VERTEX
  5
7CC
  8
0
  6
CONTINUOUS
 62
     7
 10
497.4108925007
 20
367.3737870957
 30
0.0
  0
VERTEX
  5
7CD
  8
0
  6
CONTINUOUS
 62
     7
 10
498.191851183
 20
369.5071174259
 30
0.0
  0
VERTEX
  5
7CE
  8
0
  6
CONTINUOUS
 62
     7
 10
498.6478453419
 20
371.740097409
 30
0.0
  0
VERTEX
  5
7CF
  8
0
  6
CONTINUOUS
 62
     7
 10
499.1385331295
 20
376.5458001251
 30
0.0
  0
VERTEX
  5
7D0
  8
0
  6
CONTINUOUS
 62
     7
 10
499.250094398
 20
381.3870057891
 30
0.0
  0
VERTEX
  5
7D1
  8
0
  6
CONTINUOUS
 62
     7
 10
499.0670857868
 20
386.2355428244
 30
0.0
  0
VERTEX
  5
7D2
  8
0
  6
CONTINUOUS
 62
     7
 10
498.6740620724
 20
391.0632396544
 30
0.0
  0
SEQEND
  5
7D3
  8
0
  6
CONTINUOUS
 62
     7
  0
POLYLINE
  5
29D
  8
0
  6
CONTINUOUS
 62
     7
 66
     1
 10
0.0
 20
0.0
 30
0.0
  0
VERTEX
  5
7D4
  8
0
  6
CONTINUOUS
 62
     7
 10
476.848805315
 20
414.9316849614
 30
0.0
  0
VERTEX
  5
7D5
  8
0
  6
CONTINUOUS
 62
     7
 10
477.6161294348
 20
414.5649729724
 30
0.0
  0
VERTEX
  5
7D6
  8
0
  6
CONTINUOUS
 62
     7
 10
478.0263332567
 20
414.4843819047
 30
0.0
  0
SEQEND
  5
7D7
  8
0
  6
CONTINUOUS
 62
     7
  0
POLYLINE
  5
29E
  8
0
  6
CONTINUOUS
 62
     7
 66
     1
 10
0.0
 20
0.0
 30
0.0
  0
VERTEX
  5
7D8
  8
0
  6
CONTINUOUS
 62
     7
 10
476.848805315
 20
414.9316849614
 30
0.0
  0
VERTEX
  5
7D9
  8
0
  6
CONTINUOUS
 62
     7
 10
476.016805499
 20
416.657038262
 30
0.0
  0
VERTEX
  5
7DA
  8
0
  6
CONTINUOUS
 62
     7
 10
475.3959760919
 20
417.6564274783
 30
0.0
  0
VERTEX
  5
7DB
  8
0
  6
CONTINUOUS
 62
     7
 10
474.6336266316
 20
418.6442813332
 30
0.0
  0
VERTEX
  5
7DC
  8
0
  6
CONTINUOUS
 62
     7
 10
473.6369857482
 20
419.6121247913
 30
0.0
  0
VERTEX
  5
7DD
  8
0
  6
CONTINUOUS
 62
     7
 10
472.3132816061
 20
420.5514809544
 30
0.0
  0
VERTEX
  5
7DE
  8
0
  6
CONTINUOUS
 62
     7
 10
471.7804614838
 20
420.857783636
 30
0.0
  0
VERTEX
  5
7DF
  8
0
  6
CONTINUOUS
 62
     7
 10
471.1332044016
 20
421.1556876506
 30
0.0
  0
VERTEX
  5
7E0
  8
0
  6
CONTINUOUS
 62
     7
 10
470.2823378529
 20
421.434648564
 30
0.0
  0
VERTEX
  5
7E1
  8
0
  6
CONTINUOUS
 62
     7
 10
469.5080351002
 20
421.5980546976
 30
0.0
  0
VERTEX
  5
7E2
  8
0
  6
CONTINUOUS
 62
     7
 10
468.9773004128
 20
421.6572663243
 30
0.0
  0
VERTEX
  5
7E3
  8
0
  6
CONTINUOUS
 62
     7
 10
468.5509336731
 20
421.6740319933
 30
0.0
  0
VERTEX
  5
7E4
  8
0
  6
CONTINUOUS
 62
     7
 10
468.1194818321
 20
421.6631299312
 30
0.0
  0
VERTEX
  5
7E5
  8
0
  6
CONTINUOUS
 62
     7
 10
467.8534284384
 20
421.6424247677
 30
0.0
  0
VERTEX
  5
7E6
  8
0
  6
CONTINUOUS
 62
     7
 10
467.2855122398
 20
421.5623664166
 30
0.0
  0
VERTEX
  5
7E7
  8
0
  6
CONTINUOUS
 62
     7
 10
466.6344023925
 20
421.4113599117
 30
0.0
  0
VERTEX
  5
7E8
  8
0
  6
CONTINUOUS
 62
     7
 10
466.1242347128
 20
421.2441577072
 30
0.0
  0
VERTEX
  5
7E9
  8
0
  6
CONTINUOUS
 62
     7
 10
465.3043639764
 20
420.889897501
 30
0.0
  0
VERTEX
  5
7EA
  8
0
  6
CONTINUOUS
 62
     7
 10
464.3388851463
 20
420.3249870296
 30
0.0
  0
VERTEX
  5
7EB
  8
0
  6
CONTINUOUS
 62
     7
 10
463.2063689559
 20
419.4325639362
 30
0.0
  0
VERTEX
  5
7EC
  8
0
  6
CONTINUOUS
 62
     7
 10
461.9157141923
 20
418.0327022876
 30
0.0
  0
VERTEX
  5
7ED
  8
0
  6
CONTINUOUS
 62
     7
 10
460.8923904515
 20
416.4907711054
 30
0.0
  0
VERTEX
  5
7EE
  8
0
  6
CONTINUOUS
 62
     7
 10
460.1572109304
 20
414.9316849614
 30
0.0
  0
SEQEND
  5
7EF
  8
0
  6
CONTINUOUS
 62
     7
  0
POLYLINE
  5
29F
  8
0
  6
CONTINUOUS
 62
     7
 66
     1
 10
0.0
 20
0.0
 30
0.0
  0
VERTEX
  5
7F0
  8
0
  6
CONTINUOUS
 62
     7
 10
458.9796829886
 20
414.4843800421
 30
0.0
  0
VERTEX
  5
7F1
  8
0
  6
CONTINUOUS
 62
     7
 10
459.7967155195
 20
414.7198109384
 30
0.0
  0
VERTEX
  5
7F2
  8
0
  6
CONTINUOUS
 62
     7
 10
460.1572109304
 20
414.9316849614
 30
0.0
  0
SEQEND
  5
7F3
  8
0
  6
CONTINUOUS
 62
     7
  0
ARC
  5
2A0
  8
0
  6
CONTINUOUS
 62
     7
 10
468.5030085883
 20
403.0632396544
 30
0.0
 40
14.50904293069807
 50
54.8854196981
 51
125.114585838
  0
ARC
  5
2A1
  8
0
  6
CONTINUOUS
 62
     7
 10
459.1715110913
 20
356.8525689394
 30
0.0
 40
2.660779463061192
 50
24.7614220929
 51
85.7278604321
  0
ARC
  5
2A2
  8
0
  6
CONTINUOUS
 62
     7
 10
477.8228626022
 20
356.8693476701
 30
0.0
 40
2.643200292596968
 50
94.0475422599
 51
155.4630565628
  0
LINE
  5
2A3
  8
0
  6
CONTINUOUS
 62
     7
 10
475.4183599643
 20
357.9670155848
 30
0.0
 11
474.2347537457
 21
355.2212195898
 31
0.0
  0
ARC
  5
2A4
  8
0
  6
CONTINUOUS
 62
     7
 10
473.13861157
 20
355.7981408817
 30
0.0
 40
1.238695219341592
 50
265.5141449545
 51
332.2412810463
  0
LINE
  5
2A5
  8
0
  6
CONTINUOUS
 62
     7
 10
473.0417295276
 20
354.5632401909
 30
0.0
 11
463.964287649
 21
354.5632401909
 31
0.0
  0
ARC
  5
2A6
  8
0
  6
CONTINUOUS
 62
     7
 10
463.8788719172
 20
355.8189311773
 30
0.0
 40
1.25859274617784
 50
208.3531440448
 51
273.8914299544
  0
POLYLINE
  5
2A7
  8
0
  6
CONTINUOUS
 62
     7
 66
     1
 10
0.0
 20
0.0
 30
0.0
  0
VERTEX
  5
7F4
  8
0
  6
CONTINUOUS
 62
     7
 10
462.7712634309
 20
355.2212195898
 30
0.0
  0
VERTEX
  5
7F5
  8
0
  6
CONTINUOUS
 62
     7
 10
462.6584760762
 20
355.4761449303
 30
0.0
  0
VERTEX
  5
7F6
  8
0
  6
CONTINUOUS
 62
     7
 10
461.5876576781
 20
357.9670118595
 30
0.0
  0
SEQEND
  5
7F7
  8
0
  6
CONTINUOUS
 62
     7
  0
ARC
  5
2A8
  8
0
  6
CONTINUOUS
 62
     7
 10
458.4034641013
 20
356.5353045008
 30
0.0
 40
2.473064019716136
 50
20.1433627299
 51
85.9803444342
  0
POLYLINE
  5
2A9
  8
0
  6
CONTINUOUS
 62
     7
 66
     1
 10
0.0
 20
0.0
 30
0.0
  0
VERTEX
  5
7F8
  8
0
  6
CONTINUOUS
 62
     7
 10
461.5876576781
 20
357.9670118595
 30
0.0
  0
VERTEX
  5
7F9
  8
0
  6
CONTINUOUS
 62
     7
 10
461.2341308884
 20
357.8802461232
 30
0.0
  0
VERTEX
  5
7FA
  8
0
  6
CONTINUOUS
 62
     7
 10
460.874254807
 20
357.7202821578
 30
0.0
  0
VERTEX
  5
7FB
  8
0
  6
CONTINUOUS
 62
     7
 10
460.7154917821
 20
357.5221786703
 30
0.0
  0
VERTEX
  5
7FC
  8
0
  6
CONTINUOUS
 62
     7
 10
460.7252604245
 20
357.3869543578
 30
0.0
  0
SEQEND
  5
7FD
  8
0
  6
CONTINUOUS
 62
     7
  0
LINE
  5
2AA
  8
0
  6
CONTINUOUS
 62
     7
 10
460.7252604245
 20
357.3869543578
 30
0.0
 11
461.5135234698
 21
355.2212195898
 31
0.0
  0
LINE
  5
2AB
  8
0
  6
CONTINUOUS
 62
     7
 10
461.5135234698
 20
355.2212195898
 30
0.0
 11
462.7712634309
 21
355.2212195898
 31
0.0
  0
ARC
  5
2AC
  8
0
  6
CONTINUOUS
 62
     7
 10
462.4532161265
 20
355.5632396544
 30
0.0
 40
1.0
 50
200.0
 51
270.0
  0
LINE
  5
2AD
  8
0
  6
CONTINUOUS
 62
     7
 10
463.964287649
 20
354.5632401909
 30
0.0
 11
462.4532163061
 21
354.5632401909
 31
0.0
  0
LINE
  5
2AE
  8
0
  6
CONTINUOUS
 62
     7
 10
474.2347537457
 20
355.2212195898
 30
0.0
 11
475.4924937069
 21
355.2212195898
 31
0.0
  0
ARC
  5
2AF
  8
0
  6
CONTINUOUS
 62
     7
 10
474.5528010501
 20
355.5632396544
 30
0.0
 40
1.000000000000024
 50
270.0
 51
340.0
  0
LINE
  5
2B0
  8
0
  6
CONTINUOUS
 62
     7
 10
474.5528008706
 20
354.5632401909
 30
0.0
 11
473.0417295276
 21
354.5632401909
 31
0.0
  0
LINE
  5
2B1
  8
0
  6
CONTINUOUS
 62
     7
 10
476.2807572178
 20
357.3869543578
 30
0.0
 11
475.4924937069
 21
355.2212195898
 31
0.0
  0
POLYLINE
  5
2B2
  8
0
  6
CONTINUOUS
 62
     7
 66
     1
 10
0.0
 20
0.0
 30
0.0
  0
VERTEX
  5
7FE
  8
0
  6
CONTINUOUS
 62
     7
 10
476.2807572178
 20
357.3869543578
 30
0.0
  0
VERTEX
  5
7FF
  8
0
  6
CONTINUOUS
 62
     7
 10
476.2893244541
 20
357.414920112
 30
0.0
  0
VERTEX
  5
800
  8
0
  6
CONTINUOUS
 62
     7
 10
476.2901505373
 20
357.5237283911
 30
0.0
  0
VERTEX
  5
801
  8
0
  6
CONTINUOUS
 62
     7
 10
476.1331397957
 20
357.7193396593
 30
0.0
  0
VERTEX
  5
802
  8
0
  6
CONTINUOUS
 62
     7
 10
475.7524491205
 20
357.8861581589
 30
0.0
  0
VERTEX
  5
803
  8
0
  6
CONTINUOUS
 62
     7
 10
475.4183599643
 20
357.9670155848
 30
0.0
  0
SEQEND
  5
804
  8
0
  6
CONTINUOUS
 62
     7
  0
ARC
  5
2B3
  8
0
  6
CONTINUOUS
 62
     7
 10
478.6025536398
 20
356.5353044195
 30
0.0
 40
2.473064140351489
 50
94.0196684763
 51
159.8566362897
  0
POLYLINE
  5
2B4
  8
0
  6
CONTINUOUS
 62
     7
 66
     1
 10
0.0
 20
0.0
 30
0.0
  0
VERTEX
  5
805
  8
0
  6
CONTINUOUS
 62
     7
 10
459.9939091048
 20
354.5701021756
 30
0.0
  0
VERTEX
  5
806
  8
0
  6
CONTINUOUS
 62
     7
 10
460.0791912443
 20
354.5705194081
 30
0.0
  0
VERTEX
  5
807
  8
0
  6
CONTINUOUS
 62
     7
 10
460.1848190568
 20
354.5727285053
 30
0.0
  0
VERTEX
  5
808
  8
0
  6
CONTINUOUS
 62
     7
 10
460.3078914724
 20
354.5778545047
 30
0.0
  0
VERTEX
  5
809
  8
0
  6
CONTINUOUS
 62
     7
 10
460.4590171865
 20
354.5883188452
 30
0.0
  0
VERTEX
  5
80A
  8
0
  6
CONTINUOUS
 62
     7
 10
460.790146134
 20
354.6312155629
 30
0.0
  0
VERTEX
  5
80B
  8
0
  6
CONTINUOUS
 62
     7
 10
461.0376832924
 20
354.6879480089
 30
0.0
  0
VERTEX
  5
80C
  8
0
  6
CONTINUOUS
 62
     7
 10
461.1975257202
 20
354.74538826
 30
0.0
  0
VERTEX
  5
80D
  8
0
  6
CONTINUOUS
 62
     7
 10
461.4017684861
 20
354.8622170891
 30
0.0
  0
VERTEX
  5
80E
  8
0
  6
CONTINUOUS
 62
     7
 10
461.5006656303
 20
354.9803870226
 30
0.0
  0
VERTEX
  5
80F
  8
0
  6
CONTINUOUS
 62
     7
 10
461.5135234698
 20
355.2212195898
 30
0.0
  0
SEQEND
  5
810
  8
0
  6
CONTINUOUS
 62
     7
  0
POLYLINE
  5
2B5
  8
0
  6
CONTINUOUS
 62
     7
 66
     1
 10
0.0
 20
0.0
 30
0.0
  0
VERTEX
  5
811
  8
0
  6
CONTINUOUS
 62
     7
 10
475.4924937069
 20
355.2212195898
 30
0.0
  0
VERTEX
  5
812
  8
0
  6
CONTINUOUS
 62
     7
 10
475.4853444091
 20
355.1995905544
 30
0.0
  0
VERTEX
  5
813
  8
0
  6
CONTINUOUS
 62
     7
 10
475.5199132405
 20
354.9559789206
 30
0.0
  0
VERTEX
  5
814
  8
0
  6
CONTINUOUS
 62
     7
 10
475.6375770002
 20
354.8359984959
 30
0.0
  0
VERTEX
  5
815
  8
0
  6
CONTINUOUS
 62
     7
 10
475.8803588256
 20
354.7174597586
 30
0.0
  0
VERTEX
  5
816
  8
0
  6
CONTINUOUS
 62
     7
 10
476.0795002721
 20
354.6594532634
 30
0.0
  0
VERTEX
  5
817
  8
0
  6
CONTINUOUS
 62
     7
 10
476.4108853332
 20
354.6022439803
 30
0.0
  0
VERTEX
  5
818
  8
0
  6
CONTINUOUS
 62
     7
 10
476.6823481686
 20
354.5787224974
 30
0.0
  0
VERTEX
  5
819
  8
0
  6
CONTINUOUS
 62
     7
 10
476.7668452031
 20
354.5746395792
 30
0.0
  0
VERTEX
  5
81A
  8
0
  6
CONTINUOUS
 62
     7
 10
476.8580319277
 20
354.571737578
 30
0.0
  0
VERTEX
  5
81B
  8
0
  6
CONTINUOUS
 62
     7
 10
476.8706569365
 20
354.571454456
 30
0.0
  0
VERTEX
  5
81C
  8
0
  6
CONTINUOUS
 62
     7
 10
476.9656043417
 20
354.5701804067
 30
0.0
  0
VERTEX
  5
81D
  8
0
  6
CONTINUOUS
 62
     7
 10
477.0121080718
 20
354.5701021756
 30
0.0
  0
SEQEND
  5
81E
  8
0
  6
CONTINUOUS
 62
     7
  0
LINE
  5
2B6
  8
0
  6
CONTINUOUS
 62
     7
 10
476.7955038614
 20
354.5632401909
 30
0.0
 11
474.5528008706
 21
354.5632401909
 31
0.0
  0
LINE
  5
2B7
  8
0
  6
CONTINUOUS
 62
     7
 10
462.4532163061
 20
354.5632401909
 30
0.0
 11
460.2105133153
 21
354.5632401909
 31
0.0
  0
ARC
  5
2B8
  8
0
  6
CONTINUOUS
 62
     7
 10
485.6477443238
 20
401.3238028311
 30
0.0
 40
22.50000106112842
 50
0.0000004254
 51
89.9999948314
  0
LINE
  5
2B9
  8
0
  6
CONTINUOUS
 62
     7
 10
508.147745385
 20
360.8857395555
 30
0.0
 11
508.147745385
 21
401.3238029982
 31
0.0
  0
ARC
  5
2BA
  8
0
  6
CONTINUOUS
 62
     7
 10
500.6477429018
 20
360.8857417407
 30
0.0
 40
7.500002483193247
 50
270.0000166935
 51
359.9999833065
  0
LINE
  5
2BB
  8
0
  6
CONTINUOUS
 62
     7
 10
436.3582720897
 20
353.3857392575
 30
0.0
 11
500.6477450869
 21
353.3857392575
 31
0.0
  0
ARC
  5
2BC
  8
0
  6
CONTINUOUS
 62
     7
 10
436.3582742749
 20
360.8857417407
 30
0.0
 40
7.500002483193247
 50
180.0000166935
 51
269.9999833065
  0
LINE
  5
2BD
  8
0
  6
CONTINUOUS
 62
     7
 10
428.8582717917
 20
401.3238029982
 30
0.0
 11
428.8582717917
 21
360.8857395555
 31
0.0
  0
ARC
  5
2BE
  8
0
  6
CONTINUOUS
 62
     7
 10
451.3582728528
 20
401.3238028311
 30
0.0
 40
22.50000106112842
 50
90.0000051686
 51
179.9999995746
  0
LINE
  5
2BF
  8
0
  6
CONTINUOUS
 62
     7
 10
485.6477463535
 20
423.8238038923
 30
0.0
 11
451.3582708231
 21
423.8238038923
 31
0.0
  0
INSERT
  5
2C5
  8
0
  6
CONTINUOUS
 62
     7
  2
SW_NOTE_3
 10
438.021409317
 20
341.751397366
 30
0.0
  0
INSERT
  5
2CD
  8
0
  6
CONTINUOUS
 62
     7
  2
SW_CENTERMARKSYMBOL_7
 10
468.5030085883
 20
403.0632396544
 30
0.0
  0
INSERT
  5
2D5
  8
0
  6
CONTINUOUS
 62
     7
  2
SW_CENTERMARKSYMBOL_8
 10
474.5528010501
 20
355.5632396544
 30
0.0
  0
INSERT
  5
2DD
  8
0
  6
CONTINUOUS
 62
     7
  2
SW_CENTERMARKSYMBOL_9
 10
462.4532161265
 20
355.5632396544
 30
0.0
  0
LINE
  5
2DE
  8
0
  6
CONTINUOUS
 62
     7
 10
537.7444494812
 20
404.2264309208
 30
0.0
 11
547.7945991157
 21
414.2765796239
 31
0.0
  0
LINE
  5
2DF
  8
0
  6
CONTINUOUS
 62
     7
 10
536.6724971978
 20
398.6643471251
 30
0.0
 11
554.1804395913
 21
416.1722904499
 31
0.0
  0
LINE
  5
2E0
  8
0
  6
CONTINUOUS
 62
     7
 10
536.7613602726
 20
394.2630845084
 30
0.0
 11
559.2926685064
 21
416.794391578
 31
0.0
  0
LINE
  5
2E1
  8
0
  6
CONTINUOUS
 62
     7
 10
536.8611309974
 20
389.8727245358
 30
0.0
 11
565.3787371999
 21
418.3903320189
 31
0.0
  0
LINE
  5
2E2
  8
0
  6
CONTINUOUS
 62
     7
 10
536.5351606457
 20
385.0566276777
 30
0.0
 11
570.383168903
 21
418.9046362842
 31
0.0
  0
LINE
  5
2E3
  8
0
  6
CONTINUOUS
 62
     7
 10
536.2539198546
 20
380.2852595652
 30
0.0
 11
574.1857914551
 21
418.2171302344
 31
0.0
  0
LINE
  5
2E4
  8
0
  6
CONTINUOUS
 62
     7
 10
536.0897276847
 20
375.6309396083
 30
0.0
 11
577.4341263174
 21
416.9753363783
 31
0.0
  0
LINE
  5
2E5
  8
0
  6
CONTINUOUS
 62
     7
 10
536.2440664618
 20
371.2951505984
 30
0.0
 11
581.5929509996
 21
416.6440332736
 31
0.0
  0
LINE
  5
2E6
  8
0
  6
CONTINUOUS
 62
     7
 10
537.0568093209
 20
367.6177638079
 30
0.0
 11
585.5353847443
 21
416.0963392313
 31
0.0
  0
LINE
  5
2E7
  8
0
  6
CONTINUOUS
 62
     7
 10
538.2761434017
 20
364.3469701017
 30
0.0
 11
589.0764780639
 21
415.1473066266
 31
0.0
  0
LINE
  5
2E8
  8
0
  6
CONTINUOUS
 62
     7
 10
540.3097421227
 20
361.8904410358
 30
0.0
 11
592.2346692829
 21
413.8153681959
 31
0.0
  0
LINE
  5
2E9
  8
0
  6
CONTINUOUS
 62
     7
 10
543.1371704041
 20
360.2277415301
 30
0.0
 11
595.0134806632
 21
412.1040517892
 31
0.0
  0
LINE
  5
2EA
  8
0
  6
CONTINUOUS
 62
     7
 10
546.5649757831
 20
359.1654191221
 30
0.0
 11
597.4192060827
 21
410.0196494217
 31
0.0
  0
LINE
  5
2EB
  8
0
  6
CONTINUOUS
 62
     7
 10
550.5097396968
 20
358.6200552489
 30
0.0
 11
599.4446706323
 21
407.5549861844
 31
0.0
  0
LINE
  5
2EC
  8
0
  6
CONTINUOUS
 62
     7
 10
554.6689909248
 20
358.2891786898
 30
0.0
 11
601.0397244541
 21
404.6599122192
 31
0.0
  0
LINE
  5
2ED
  8
0
  6
CONTINUOUS
 62
     7
 10
558.8650917931
 20
357.9951489772
 30
0.0
 11
602.0904723851
 21
401.2205323632
 31
0.0
  0
LINE
  5
2EE
  8
0
  6
CONTINUOUS
 62
     7
 10
561.9356930552
 20
356.5756233836
 30
0.0
 11
602.2562925069
 21
396.896224698
 31
0.0
  0
LINE
  5
2EF
  8
0
  6
CONTINUOUS
 62
     7
 10
564.4134371838
 20
354.5632401909
 30
0.0
 11
602.1130290179
 21
392.2628301623
 31
0.0
  0
LINE
  5
2F0
  8
0
  6
CONTINUOUS
 62
     7
 10
568.9035652036
 20
354.5632401909
 30
0.0
 11
602.2093724756
 21
387.8690467644
 31
0.0
  0
LINE
  5
2F1
  8
0
  6
CONTINUOUS
 62
     7
 10
573.3936932235
 20
354.5632401909
 30
0.0
 11
602.458151087
 21
383.6276980544
 31
0.0
  0
LINE
  5
2F2
  8
0
  6
CONTINUOUS
 62
     7
 10
581.4189408271
 20
358.0983581449
 30
0.0
 11
602.6713457255
 21
379.3507639746
 31
0.0
  0
LINE
  5
2F3
  8
0
  6
CONTINUOUS
 62
     7
 10
586.2809177785
 20
358.4702054466
 30
0.0
 11
602.7789209335
 21
374.9682086016
 31
0.0
  0
LINE
  5
2F4
  8
0
  6
CONTINUOUS
 62
     7
 10
591.4776046126
 20
359.1767663564
 30
0.0
 11
602.5198493449
 21
370.2190129514
 31
0.0
  0
POLYLINE
  5
2F5
  8
0
  6
CONTINUOUS
 62
     7
 66
     1
 10
0.0
 20
0.0
 30
0.0
  0
VERTEX
  5
81F
  8
0
  6
CONTINUOUS
 62
     7
 10
561.3264637365
 20
416.9471228923
 30
0.0
  0
VERTEX
  5
820
  8
0
  6
CONTINUOUS
 62
     7
 10
562.0180582924
 20
417.8520033563
 30
0.0
  0
VERTEX
  5
821
  8
0
  6
CONTINUOUS
 62
     7
 10
562.6962008251
 20
418.6017943974
 30
0.0
  0
VERTEX
  5
822
  8
0
  6
CONTINUOUS
 62
     7
 10
563.4875651746
 20
419.3383010532
 30
0.0
  0
VERTEX
  5
823
  8
0
  6
CONTINUOUS
 62
     7
 10
564.7709174378
 20
420.2806188221
 30
0.0
  0
VERTEX
  5
824
  8
0
  6
CONTINUOUS
 62
     7
 10
565.8633909485
 20
420.8750000651
 30
0.0
  0
VERTEX
  5
825
  8
0
  6
CONTINUOUS
 62
     7
 10
566.7908536567
 20
421.2468920703
 30
0.0
  0
VERTEX
  5
826
  8
0
  6
CONTINUOUS
 62
     7
 10
567.374461593
 20
421.4235658254
 30
0.0
  0
VERTEX
  5
827
  8
0
  6
CONTINUOUS
 62
     7
 10
568.1047322292
 20
421.5803726072
 30
0.0
  0
VERTEX
  5
828
  8
0
  6
CONTINUOUS
 62
     7
 10
568.7474009179
 20
421.664186051
 30
0.0
  0
VERTEX
  5
829
  8
0
  6
CONTINUOUS
 62
     7
 10
569.0484930825
 20
421.68585979
 30
0.0
  0
VERTEX
  5
82A
  8
0
  6
CONTINUOUS
 62
     7
 10
569.5367792183
 20
421.6972666289
 30
0.0
  0
VERTEX
  5
82B
  8
0
  6
CONTINUOUS
 62
     7
 10
570.0193080998
 20
421.6797223742
 30
0.0
  0
VERTEX
  5
82C
  8
0
  6
CONTINUOUS
 62
     7
 10
570.6199208804
 20
421.6177391316
 30
0.0
  0
VERTEX
  5
82D
  8
0
  6
CONTINUOUS
 62
     7
 10
571.0917831462
 20
421.5377962644
 30
0.0
  0
VERTEX
  5
82E
  8
0
  6
CONTINUOUS
 62
     7
 10
571.4960564224
 20
421.446589982
 30
0.0
  0
VERTEX
  5
82F
  8
0
  6
CONTINUOUS
 62
     7
 10
572.4483225791
 20
421.1569747384
 30
0.0
  0
VERTEX
  5
830
  8
0
  6
CONTINUOUS
 62
     7
 10
573.1842054816
 20
420.8435344006
 30
0.0
  0
VERTEX
  5
831
  8
0
  6
CONTINUOUS
 62
     7
 10
573.7936836964
 20
420.5191268082
 30
0.0
  0
VERTEX
  5
832
  8
0
  6
CONTINUOUS
 62
     7
 10
575.1075749582
 20
419.6634145881
 30
0.0
  0
VERTEX
  5
833
  8
0
  6
CONTINUOUS
 62
     7
 10
576.1339795141
 20
418.7779540624
 30
0.0
  0
VERTEX
  5
834
  8
0
  6
CONTINUOUS
 62
     7
 10
576.95146979
 20
417.8700784649
 30
0.0
  0
VERTEX
  5
835
  8
0
  6
CONTINUOUS
 62
     7
 10
577.6386168151
 20
416.9471247549
 30
0.0
  0
SEQEND
  5
836
  8
0
  6
CONTINUOUS
 62
     7
  0
POLYLINE
  5
2F6
  8
0
  6
CONTINUOUS
 62
     7
 66
     1
 10
0.0
 20
0.0
 30
0.0
  0
VERTEX
  5
837
  8
0
  6
CONTINUOUS
 62
     7
 10
561.3264637365
 20
416.9471228923
 30
0.0
  0
VERTEX
  5
838
  8
0
  6
CONTINUOUS
 62
     7
 10
559.501463577
 20
416.8146832342
 30
0.0
  0
VERTEX
  5
839
  8
0
  6
CONTINUOUS
 62
     7
 10
556.8295996933
 20
416.5713435466
 30
0.0
  0
VERTEX
  5
83A
  8
0
  6
CONTINUOUS
 62
     7
 10
554.1638108267
 20
416.2132369782
 30
0.0
  0
VERTEX
  5
83B
  8
0
  6
CONTINUOUS
 62
     7
 10
551.5414420812
 20
415.6655801888
 30
0.0
  0
VERTEX
  5
83C
  8
0
  6
CONTINUOUS
 62
     7
 10
548.999836698
 20
414.853586113
 30
0.0
  0
VERTEX
  5
83D
  8
0
  6
CONTINUOUS
 62
     7
 10
546.8814987986
 20
413.9047826136
 30
0.0
  0
VERTEX
  5
83E
  8
0
  6
CONTINUOUS
 62
     7
 10
544.8662713467
 20
412.7416911031
 30
0.0
  0
VERTEX
  5
83F
  8
0
  6
CONTINUOUS
 62
     7
 10
542.9956820159
 20
411.3706948663
 30
0.0
  0
VERTEX
  5
840
  8
0
  6
CONTINUOUS
 62
     7
 10
541.2869621365
 20
409.7755609508
 30
0.0
  0
VERTEX
  5
841
  8
0
  6
CONTINUOUS
 62
     7
 10
539.7829804866
 20
407.9749698247
 30
0.0
  0
VERTEX
  5
842
  8
0
  6
CONTINUOUS
 62
     7
 10
538.5332405864
 20
406.0025068427
 30
0.0
  0
VERTEX
  5
843
  8
0
  6
CONTINUOUS
 62
     7
 10
537.4913458078
 20
403.6565257664
 30
0.0
  0
VERTEX
  5
844
  8
0
  6
CONTINUOUS
 62
     7
 10
536.8421580939
 20
401.1750577445
 30
0.0
  0
VERTEX
  5
845
  8
0
  6
CONTINUOUS
 62
     7
 10
536.6677996068
 20
398.9539279099
 30
0.0
  0
VERTEX
  5
846
  8
0
  6
CONTINUOUS
 62
     7
 10
536.7040839343
 20
396.7171383518
 30
0.0
  0
VERTEX
  5
847
  8
0
  6
CONTINUOUS
 62
     7
 10
536.7527511267
 20
394.5088747385
 30
0.0
  0
VERTEX
  5
848
  8
0
  6
CONTINUOUS
 62
     7
 10
536.7914121895
 20
393.4051247741
 30
0.0
  0
VERTEX
  5
849
  8
0
  6
CONTINUOUS
 62
     7
 10
536.8527304678
 20
392.2335634668
 30
0.0
  0
VERTEX
  5
84A
  8
0
  6
CONTINUOUS
 62
     7
 10
536.9430687575
 20
391.0632396544
 30
0.0
  0
SEQEND
  5
84B
  8
0
  6
CONTINUOUS
 62
     7
  0
LINE
  5
2F7
  8
0
  6
CONTINUOUS
 62
     7
 10
531.73254247
 20
391.0632396544
 30
0.0
 11
536.9430687575
 21
391.0632396544
 31
0.0
  0
LINE
  5
2F8
  8
0
  6
CONTINUOUS
 62
     7
 10
531.73254247
 20
402.0632395948
 30
0.0
 11
531.73254247
 21
391.0632396544
 31
0.0
  0
POLYLINE
  5
2F9
  8
0
  6
CONTINUOUS
 62
     7
 66
     1
 10
0.0
 20
0.0
 30
0.0
  0
VERTEX
  5
84C
  8
0
  6
CONTINUOUS
 62
     7
 10
555.7325408159
 20
422.0632391478
 30
0.0
  0
VERTEX
  5
84D
  8
0
  6
CONTINUOUS
 62
     7
 10
552.8284348844
 20
421.916404968
 30
0.0
  0
VERTEX
  5
84E
  8
0
  6
CONTINUOUS
 62
     7
 10
549.7626904695
 20
421.4343673046
 30
0.0
  0
VERTEX
  5
84F
  8
0
  6
CONTINUOUS
 62
     7
 10
546.6228649317
 20
420.5668328757
 30
0.0
  0
VERTEX
  5
850
  8
0
  6
CONTINUOUS
 62
     7
 10
544.2945715337
 20
419.6453953589
 30
0.0
  0
VERTEX
  5
851
  8
0
  6
CONTINUOUS
 62
     7
 10
542.0591291337
 20
418.5004925783
 30
0.0
  0
VERTEX
  5
852
  8
0
  6
CONTINUOUS
 62
     7
 10
539.9792827962
 20
417.1512781138
 30
0.0
  0
VERTEX
  5
853
  8
0
  6
CONTINUOUS
 62
     7
 10
538.1029825954
 20
415.6344386245
 30
0.0
  0
VERTEX
  5
854
  8
0
  6
CONTINUOUS
 62
     7
 10
536.4684742241
 20
413.9914831574
 30
0.0
  0
VERTEX
  5
855
  8
0
  6
CONTINUOUS
 62
     7
 10
535.0899491756
 20
412.2656455691
 30
0.0
  0
VERTEX
  5
856
  8
0
  6
CONTINUOUS
 62
     7
 10
533.9717772155
 20
410.49873293
 30
0.0
  0
VERTEX
  5
857
  8
0
  6
CONTINUOUS
 62
     7
 10
533.1030767708
 20
408.7251482959
 30
0.0
  0
VERTEX
  5
858
  8
0
  6
CONTINUOUS
 62
     7
 10
532.4676428287
 20
406.9752844478
 30
0.0
  0
VERTEX
  5
859
  8
0
  6
CONTINUOUS
 62
     7
 10
532.043272659
 20
405.2709361966
 30
0.0
  0
VERTEX
  5
85A
  8
0
  6
CONTINUOUS
 62
     7
 10
531.8062249868
 20
403.6299840043
 30
0.0
  0
VERTEX
  5
85B
  8
0
  6
CONTINUOUS
 62
     7
 10
531.73254247
 20
402.0632395948
 30
0.0
  0
SEQEND
  5
85C
  8
0
  6
CONTINUOUS
 62
     7
  0
LINE
  5
2FA
  8
0
  6
CONTINUOUS
 62
     7
 10
569.4825407414
 20
422.0632391478
 30
0.0
 11
555.7325408159
 21
422.0632391478
 31
0.0
  0
LINE
  5
2FB
  8
0
  6
CONTINUOUS
 62
     7
 10
583.2325406669
 20
422.0632391478
 30
0.0
 11
569.4825407414
 21
422.0632391478
 31
0.0
  0
POLYLINE
  5
2FC
  8
0
  6
CONTINUOUS
 62
     7
 66
     1
 10
0.0
 20
0.0
 30
0.0
  0
VERTEX
  5
85D
  8
0
  6
CONTINUOUS
 62
     7
 10
607.2325390129
 20
402.0632395948
 30
0.0
  0
VERTEX
  5
85E
  8
0
  6
CONTINUOUS
 62
     7
 10
607.1588564961
 20
403.629985867
 30
0.0
  0
VERTEX
  5
85F
  8
0
  6
CONTINUOUS
 62
     7
 10
606.9218050985
 20
405.2709389905
 30
0.0
  0
VERTEX
  5
860
  8
0
  6
CONTINUOUS
 62
     7
 10
606.4974386542
 20
406.9752881731
 30
0.0
  0
VERTEX
  5
861
  8
0
  6
CONTINUOUS
 62
     7
 10
605.8620047121
 20
408.7251538838
 30
0.0
  0
VERTEX
  5
862
  8
0
  6
CONTINUOUS
 62
     7
 10
604.9933005421
 20
410.4987385179
 30
0.0
  0
VERTEX
  5
863
  8
0
  6
CONTINUOUS
 62
     7
 10
603.875128582
 20
412.2656492944
 30
0.0
  0
VERTEX
  5
864
  8
0
  6
CONTINUOUS
 62
     7
 10
602.4966035335
 20
413.9914887453
 30
0.0
  0
VERTEX
  5
865
  8
0
  6
CONTINUOUS
 62
     7
 10
600.8620951621
 20
415.6344423498
 30
0.0
  0
VERTEX
  5
866
  8
0
  6
CONTINUOUS
 62
     7
 10
598.9857949613
 20
417.1512799765
 30
0.0
  0
VERTEX
  5
867
  8
0
  6
CONTINUOUS
 62
     7
 10
596.9059504865
 20
418.5004925783
 30
0.0
  0
VERTEX
  5
868
  8
0
  6
CONTINUOUS
 62
     7
 10
594.6705099492
 20
419.6453953589
 30
0.0
  0
VERTEX
  5
869
  8
0
  6
CONTINUOUS
 62
     7
 10
592.3422184138
 20
420.5668328757
 30
0.0
  0
VERTEX
  5
86A
  8
0
  6
CONTINUOUS
 62
     7
 10
589.202392876
 20
421.4343673046
 30
0.0
  0
VERTEX
  5
86B
  8
0
  6
CONTINUOUS
 62
     7
 10
586.1366484611
 20
421.916404968
 30
0.0
  0
VERTEX
  5
86C
  8
0
  6
CONTINUOUS
 62
     7
 10
583.2325406669
 20
422.0632391478
 30
0.0
  0
SEQEND
  5
86D
  8
0
  6
CONTINUOUS
 62
     7
  0
LINE
  5
2FD
  8
0
  6
CONTINUOUS
 62
     7
 10
607.2325390129
 20
391.0632396544
 30
0.0
 11
607.2325390129
 21
402.0632395948
 31
0.0
  0
LINE
  5
2FE
  8
0
  6
CONTINUOUS
 62
     7
 10
602.0220127253
 20
391.0632396544
 30
0.0
 11
607.2325390129
 21
391.0632396544
 31
0.0
  0
POLYLINE
  5
2FF
  8
0
  6
CONTINUOUS
 62
     7
 66
     1
 10
0.0
 20
0.0
 30
0.0
  0
VERTEX
  5
86E
  8
0
  6
CONTINUOUS
 62
     7
 10
602.0220127253
 20
391.0632396544
 30
0.0
  0
VERTEX
  5
86F
  8
0
  6
CONTINUOUS
 62
     7
 10
602.1192614286
 20
392.3450120454
 30
0.0
  0
VERTEX
  5
870
  8
0
  6
CONTINUOUS
 62
     7
 10
602.1828409581
 20
393.6287816576
 30
0.0
  0
VERTEX
  5
871
  8
0
  6
CONTINUOUS
 62
     7
 10
602.2983994632
 20
398.7692601475
 30
0.0
  0
VERTEX
  5
872
  8
0
  6
CONTINUOUS
 62
     7
 10
602.206887707
 20
400.5183030347
 30
0.0
  0
VERTEX
  5
873
  8
0
  6
CONTINUOUS
 62
     7
 10
601.892514184
 20
402.249308532
 30
0.0
  0
VERTEX
  5
874
  8
0
  6
CONTINUOUS
 62
     7
 10
601.3764050154
 20
403.9251536558
 30
0.0
  0
VERTEX
  5
875
  8
0
  6
CONTINUOUS
 62
     7
 10
600.3898270725
 20
406.0782233681
 30
0.0
  0
VERTEX
  5
876
  8
0
  6
CONTINUOUS
 62
     7
 10
599.1127286403
 20
408.0736266877
 30
0.0
  0
VERTEX
  5
877
  8
0
  6
CONTINUOUS
 62
     7
 10
597.2518902569
 20
410.211911654
 30
0.0
  0
VERTEX
  5
878
  8
0
  6
CONTINUOUS
 62
     7
 10
595.0947143434
 20
412.0532090272
 30
0.0
  0
VERTEX
  5
879
  8
0
  6
CONTINUOUS
 62
     7
 10
592.3873931466
 20
413.7477262373
 30
0.0
  0
VERTEX
  5
87A
  8
0
  6
CONTINUOUS
 62
     7
 10
589.4653369038
 20
415.0419125761
 30
0.0
  0
VERTEX
  5
87B
  8
0
  6
CONTINUOUS
 62
     7
 10
586.594874069
 20
415.8792367632
 30
0.0
  0
VERTEX
  5
87C
  8
0
  6
CONTINUOUS
 62
     7
 10
583.6391644849
 20
416.4086172785
 30
0.0
  0
VERTEX
  5
87D
  8
0
  6
CONTINUOUS
 62
     7
 10
580.6398615538
 20
416.7309480215
 30
0.0
  0
VERTEX
  5
87E
  8
0
  6
CONTINUOUS
 62
     7
 10
577.6386168151
 20
416.9471247549
 30
0.0
  0
SEQEND
  5
87F
  8
0
  6
CONTINUOUS
 62
     7
  0
POLYLINE
  5
300
  8
0
  6
CONTINUOUS
 62
     7
 66
     1
 10
0.0
 20
0.0
 30
0.0
  0
VERTEX
  5
880
  8
0
  6
CONTINUOUS
 62
     7
 10
560.9734412579
 20
354.5701021756
 30
0.0
  0
VERTEX
  5
881
  8
0
  6
CONTINUOUS
 62
     7
 10
560.0279569922
 20
357.4428895916
 30
0.0
  0
VERTEX
  5
882
  8
0
  6
CONTINUOUS
 62
     7
 10
559.878398694
 20
357.9241449441
 30
0.0
  0
SEQEND
  5
883
  8
0
  6
CONTINUOUS
 62
     7
  0
ARC
  5
301
  8
0
  6
CONTINUOUS
 62
     7
 10
561.1711971887
 20
357.3903550044
 30
0.0
 40
2.827177643279479
 50
265.9889891423
 51
270.3819833806
  0
LINE
  5
302
  8
0
  6
CONTINUOUS
 62
     7
 10
560.9757798089
 20
354.5632401909
 30
0.0
 11
561.1900454684
 21
354.5632401909
 31
0.0
  0
LINE
  5
303
  8
0
  6
CONTINUOUS
 62
     7
 10
539.198465675
 20
354.5632401909
 30
0.0
 11
560.9757798089
 21
354.5632401909
 31
0.0
  0
ARC
  5
304
  8
0
  6
CONTINUOUS
 62
     7
 10
539.1824322544
 20
362.0871578611
 30
0.0
 40
7.523934753758426
 50
233.0702194654
 51
270.1220967556
  0
POLYLINE
  5
305
  8
0
  6
CONTINUOUS
 62
     7
 66
     1
 10
0.0
 20
0.0
 30
0.0
  0
VERTEX
  5
884
  8
0
  6
CONTINUOUS
 62
     7
 10
533.2547035365
 20
357.468098631
 30
0.0
  0
VERTEX
  5
885
  8
0
  6
CONTINUOUS
 62
     7
 10
533.9050349145
 20
356.7295821811
 30
0.0
  0
VERTEX
  5
886
  8
0
  6
CONTINUOUS
 62
     7
 10
534.6617829351
 20
356.0727315451
 30
0.0
  0
SEQEND
  5
887
  8
0
  6
CONTINUOUS
 62
     7
  0
ARC
  5
306
  8
0
  6
CONTINUOUS
 62
     7
 10
539.1141142374
 20
361.9575304449
 30
0.0
 40
7.381577864802932
 50
179.9263568127
 51
217.4590360158
  0
LINE
  5
307
  8
0
  6
CONTINUOUS
 62
     7
 10
531.73254247
 20
391.0632396544
 30
0.0
 11
531.73254247
 21
361.9670181031
 31
0.0
  0
POLYLINE
  5
308
  8
0
  6
CONTINUOUS
 62
     7
 66
     1
 10
0.0
 20
0.0
 30
0.0
  0
VERTEX
  5
888
  8
0
  6
CONTINUOUS
 62
     7
 10
536.9430687575
 20
391.0632396544
 30
0.0
  0
VERTEX
  5
889
  8
0
  6
CONTINUOUS
 62
     7
 10
536.5820359735
 20
385.8176444153
 30
0.0
  0
VERTEX
  5
88A
  8
0
  6
CONTINUOUS
 62
     7
 10
536.3537017553
 20
382.1064580659
 30
0.0
  0
VERTEX
  5
88B
  8
0
  6
CONTINUOUS
 62
     7
 10
536.1483525781
 20
378.3905601556
 30
0.0
  0
VERTEX
  5
88C
  8
0
  6
CONTINUOUS
 62
     7
 10
536.0782165377
 20
374.6771460826
 30
0.0
  0
VERTEX
  5
88D
  8
0
  6
CONTINUOUS
 62
     7
 10
536.2555217294
 20
370.9734121765
 30
0.0
  0
VERTEX
  5
88E
  8
0
  6
CONTINUOUS
 62
     7
 10
536.5457851736
 20
369.322039416
 30
0.0
  0
VERTEX
  5
88F
  8
0
  6
CONTINUOUS
 62
     7
 10
537.0209571271
 20
367.7033989186
 30
0.0
  0
VERTEX
  5
890
  8
0
  6
CONTINUOUS
 62
     7
 10
537.5473071186
 20
366.0996335055
 30
0.0
  0
VERTEX
  5
891
  8
0
  6
CONTINUOUS
 62
     7
 10
538.0756389646
 20
364.6958155985
 30
0.0
  0
VERTEX
  5
892
  8
0
  6
CONTINUOUS
 62
     7
 10
538.8196204154
 20
363.4014094676
 30
0.0
  0
VERTEX
  5
893
  8
0
  6
CONTINUOUS
 62
     7
 10
539.8243703245
 20
362.2798288668
 30
0.0
  0
VERTEX
  5
894
  8
0
  6
CONTINUOUS
 62
     7
 10
541.0018116532
 20
361.3352330829
 30
0.0
  0
VERTEX
  5
895
  8
0
  6
CONTINUOUS
 62
     7
 10
542.4063280521
 20
360.4816759433
 30
0.0
  0
VERTEX
  5
896
  8
0
  6
CONTINUOUS
 62
     7
 10
543.9118128567
 20
359.825976422
 30
0.0
  0
VERTEX
  5
897
  8
0
  6
CONTINUOUS
 62
     7
 10
546.3208183943
 20
359.1740953232
 30
0.0
  0
VERTEX
  5
898
  8
0
  6
CONTINUOUS
 62
     7
 10
548.7980358599
 20
358.7895969356
 30
0.0
  0
VERTEX
  5
899
  8
0
  6
CONTINUOUS
 62
     7
 10
551.3075981586
 20
358.5540729071
 30
0.0
  0
VERTEX
  5
89A
  8
0
  6
CONTINUOUS
 62
     7
 10
553.8136400579
 20
358.3491148855
 30
0.0
  0
VERTEX
  5
89B
  8
0
  6
CONTINUOUS
 62
     7
 10
559.878398694
 20
357.9241449441
 30
0.0
  0
SEQEND
  5
89C
  8
0
  6
CONTINUOUS
 62
     7
  0
LINE
  5
309
  8
0
  6
CONTINUOUS
 62
     7
 10
607.2325390129
 20
361.9670181031
 30
0.0
 11
607.2325390129
 21
391.0632396544
 31
0.0
  0
ARC
  5
30A
  8
0
  6
CONTINUOUS
 62
     7
 10
599.8507772573
 20
361.9575723589
 30
0.0
 40
7.38176779901466
 50
322.6718305124
 51
0.0733159645
  0
POLYLINE
  5
30B
  8
0
  6
CONTINUOUS
 62
     7
 66
     1
 10
0.0
 20
0.0
 30
0.0
  0
VERTEX
  5
89D
  8
0
  6
CONTINUOUS
 62
     7
 10
604.3032985477
 20
356.0727315451
 30
0.0
  0
VERTEX
  5
89E
  8
0
  6
CONTINUOUS
 62
     7
 10
605.053035572
 20
356.7226158882
 30
0.0
  0
VERTEX
  5
89F
  8
0
  6
CONTINUOUS
 62
     7
 10
605.7205777912
 20
357.4814202691
 30
0.0
  0
SEQEND
  5
8A0
  8
0
  6
CONTINUOUS
 62
     7
  0
ARC
  5
30C
  8
0
  6
CONTINUOUS
 62
     7
 10
599.7832410287
 20
362.0853792419
 30
0.0
 40
7.52215742325968
 50
269.8733666805
 51
306.9343170985
  0
LINE
  5
30D
  8
0
  6
CONTINUOUS
 62
     7
 10
577.9893016739
 20
354.5632401909
 30
0.0
 11
599.7666158079
 21
354.5632401909
 31
0.0
  0
LINE
  5
30E
  8
0
  6
CONTINUOUS
 62
     7
 10
577.7750360145
 20
354.5632401909
 30
0.0
 11
577.9893016739
 21
354.5632401909
 31
0.0
  0
ARC
  5
30F
  8
0
  6
CONTINUOUS
 62
     7
 10
577.793034265
 20
357.4171868731
 30
0.0
 40
2.854003434178299
 50
269.6386722528
 51
273.9903552243
  0
POLYLINE
  5
310
  8
0
  6
CONTINUOUS
 62
     7
 66
     1
 10
0.0
 20
0.0
 30
0.0
  0
VERTEX
  5
8A1
  8
0
  6
CONTINUOUS
 62
     7
 10
579.0866827889
 20
357.9241486694
 30
0.0
  0
VERTEX
  5
8A2
  8
0
  6
CONTINUOUS
 62
     7
 10
578.9371272846
 20
357.4429007675
 30
0.0
  0
VERTEX
  5
8A3
  8
0
  6
CONTINUOUS
 62
     7
 10
577.9916402249
 20
354.5701021756
 30
0.0
  0
SEQEND
  5
8A4
  8
0
  6
CONTINUOUS
 62
     7
  0
POLYLINE
  5
311
  8
0
  6
CONTINUOUS
 62
     7
 66
     1
 10
0.0
 20
0.0
 30
0.0
  0
VERTEX
  5
8A5
  8
0
  6
CONTINUOUS
 62
     7
 10
579.0866827889
 20
357.9241486694
 30
0.0
  0
VERTEX
  5
8A6
  8
0
  6
CONTINUOUS
 62
     7
 10
583.7910138367
 20
358.2356015648
 30
0.0
  0
VERTEX
  5
8A7
  8
0
  6
CONTINUOUS
 62
     7
 10
588.4822868107
 20
358.713593563
 30
0.0
  0
VERTEX
  5
8A8
  8
0
  6
CONTINUOUS
 62
     7
 10
593.1439623533
 20
359.4033310617
 30
0.0
  0
VERTEX
  5
8A9
  8
0
  6
CONTINUOUS
 62
     7
 10
595.0795654504
 20
359.8807605411
 30
0.0
  0
VERTEX
  5
8AA
  8
0
  6
CONTINUOUS
 62
     7
 10
596.9032515137
 20
360.6726231481
 30
0.0
  0
VERTEX
  5
8AB
  8
0
  6
CONTINUOUS
 62
     7
 10
598.5708050726
 20
361.7850879635
 30
0.0
  0
VERTEX
  5
8AC
  8
0
  6
CONTINUOUS
 62
     7
 10
599.9864377378
 20
363.1924076433
 30
0.0
  0
VERTEX
  5
8AD
  8
0
  6
CONTINUOUS
 62
     7
 10
600.6057765631
 20
364.1690930779
 30
0.0
  0
VERTEX
  5
8AE
  8
0
  6
CONTINUOUS
 62
     7
 10
601.0818239598
 20
365.235273024
 30
0.0
  0
VERTEX
  5
8AF
  8
0
  6
CONTINUOUS
 62
     7
 10
601.4964748471
 20
366.3278168495
 30
0.0
  0
VERTEX
  5
8B0
  8
0
  6
CONTINUOUS
 62
     7
 10
602.1207254677
 20
368.1978119965
 30
0.0
  0
VERTEX
  5
8B1
  8
0
  6
CONTINUOUS
 62
     7
 10
602.5667507498
 20
370.1212333943
 30
0.0
  0
VERTEX
  5
8B2
  8
0
  6
CONTINUOUS
 62
     7
 10
602.7823258488
 20
372.0750624741
 30
0.0
  0
VERTEX
  5
8B3
  8
0
  6
CONTINUOUS
 62
     7
 10
602.7767416386
 20
376.8181868325
 30
0.0
  0
VERTEX
  5
8B4
  8
0
  6
CONTINUOUS
 62
     7
 10
602.5793385057
 20
381.5616595055
 30
0.0
  0
VERTEX
  5
8B5
  8
0
  6
CONTINUOUS
 62
     7
 10
602.3563426285
 20
386.3159094433
 30
0.0
  0
VERTEX
  5
8B6
  8
0
  6
CONTINUOUS
 62
     7
 10
602.0220127253
 20
391.0632396544
 30
0.0
  0
SEQEND
  5
8B7
  8
0
  6
CONTINUOUS
 62
     7
  0
POLYLINE
  5
312
  8
0
  6
CONTINUOUS
 62
     7
 66
     1
 10
0.0
 20
0.0
 30
0.0
  0
VERTEX
  5
8B8
  8
0
  6
CONTINUOUS
 62
     7
 10
576.6504383943
 20
417.2188828195
 30
0.0
  0
VERTEX
  5
8B9
  8
0
  6
CONTINUOUS
 62
     7
 10
577.4714518635
 20
416.963737687
 30
0.0
  0
VERTEX
  5
8BA
  8
0
  6
CONTINUOUS
 62
     7
 10
577.6386168151
 20
416.9471247549
 30
0.0
  0
SEQEND
  5
8BB
  8
0
  6
CONTINUOUS
 62
     7
  0
POLYLINE
  5
313
  8
0
  6
CONTINUOUS
 62
     7
 66
     1
 10
0.0
 20
0.0
 30
0.0
  0
VERTEX
  5
8BC
  8
0
  6
CONTINUOUS
 62
     7
 10
576.6504383943
 20
417.2188828195
 30
0.0
  0
VERTEX
  5
8BD
  8
0
  6
CONTINUOUS
 62
     7
 10
576.0556040628
 20
418.0731738414
 30
0.0
  0
VERTEX
  5
8BE
  8
0
  6
CONTINUOUS
 62
     7
 10
575.3443148284
 20
418.9173711891
 30
0.0
  0
VERTEX
  5
8BF
  8
0
  6
CONTINUOUS
 62
     7
 10
574.4466805196
 20
419.7454715575
 30
0.0
  0
VERTEX
  5
8C0
  8
0
  6
CONTINUOUS
 62
     7
 10
573.2928137592
 20
420.5514809544
 30
0.0
  0
VERTEX
  5
8C1
  8
0
  6
CONTINUOUS
 62
     7
 10
572.7599936368
 20
420.857783636
 30
0.0
  0
VERTEX
  5
8C2
  8
0
  6
CONTINUOUS
 62
     7
 10
572.1127365547
 20
421.1556876506
 30
0.0
  0
VERTEX
  5
8C3
  8
0
  6
CONTINUOUS
 62
     7
 10
571.261870006
 20
421.434648564
 30
0.0
  0
VERTEX
  5
8C4
  8
0
  6
CONTINUOUS
 62
     7
 10
570.4875672533
 20
421.5980546976
 30
0.0
  0
VERTEX
  5
8C5
  8
0
  6
CONTINUOUS
 62
     7
 10
569.9568325659
 20
421.6572663243
 30
0.0
  0
VERTEX
  5
8C6
  8
0
  6
CONTINUOUS
 62
     7
 10
569.5304658262
 20
421.6740319933
 30
0.0
  0
VERTEX
  5
8C7
  8
0
  6
CONTINUOUS
 62
     7
 10
569.0990139852
 20
421.6631299312
 30
0.0
  0
VERTEX
  5
8C8
  8
0
  6
CONTINUOUS
 62
     7
 10
568.8329605915
 20
421.6424247677
 30
0.0
  0
VERTEX
  5
8C9
  8
0
  6
CONTINUOUS
 62
     7
 10
568.2650443929
 20
421.5623664166
 30
0.0
  0
VERTEX
  5
8CA
  8
0
  6
CONTINUOUS
 62
     7
 10
567.6139345456
 20
421.4113599117
 30
0.0
  0
VERTEX
  5
8CB
  8
0
  6
CONTINUOUS
 62
     7
 10
567.1037668659
 20
421.2441577072
 30
0.0
  0
VERTEX
  5
8CC
  8
0
  6
CONTINUOUS
 62
     7
 10
566.2838961294
 20
420.889897501
 30
0.0
  0
VERTEX
  5
8CD
  8
0
  6
CONTINUOUS
 62
     7
 10
565.3184172994
 20
420.3249870296
 30
0.0
  0
VERTEX
  5
8CE
  8
0
  6
CONTINUOUS
 62
     7
 10
564.185901109
 20
419.4325639362
 30
0.0
  0
VERTEX
  5
8CF
  8
0
  6
CONTINUOUS
 62
     7
 10
562.8952463454
 20
418.0327022876
 30
0.0
  0
VERTEX
  5
8D0
  8
0
  6
CONTINUOUS
 62
     7
 10
562.3146421573
 20
417.2188809569
 30
0.0
  0
SEQEND
  5
8D1
  8
0
  6
CONTINUOUS
 62
     7
  0
POLYLINE
  5
314
  8
0
  6
CONTINUOUS
 62
     7
 66
     1
 10
0.0
 20
0.0
 30
0.0
  0
VERTEX
  5
8D2
  8
0
  6
CONTINUOUS
 62
     7
 10
561.3264637365
 20
416.9471228923
 30
0.0
  0
VERTEX
  5
8D3
  8
0
  6
CONTINUOUS
 62
     7
 10
562.1624100319
 20
417.1478825117
 30
0.0
  0
VERTEX
  5
8D4
  8
0
  6
CONTINUOUS
 62
     7
 10
562.3146421573
 20
417.2188809569
 30
0.0
  0
SEQEND
  5
8D5
  8
0
  6
CONTINUOUS
 62
     7
  0
ARC
  5
315
  8
0
  6
CONTINUOUS
 62
     7
 10
569.4825407414
 20
403.0632396544
 30
0.0
 40
15.86697748515571
 50
63.1440211017
 51
116.8559827876
  0
ARC
  5
316
  8
0
  6
CONTINUOUS
 62
     7
 10
559.7420091561
 20
355.4058281388
 30
0.0
 40
2.522007461929771
 50
19.840233249
 51
86.8999461244
  0
ARC
  5
317
  8
0
  6
CONTINUOUS
 62
     7
 10
579.225326351
 20
355.4028001256
 30
0.0
 40
2.525157523089089
 50
93.1474026565
 51
160.11241797
  0
LINE
  5
318
  8
0
  6
CONTINUOUS
 62
     7
 10
576.8507644831
 20
356.2617974783
 30
0.0
 11
576.47202586
 21
355.2212195898
 31
0.0
  0
ARC
  5
319
  8
0
  6
CONTINUOUS
 62
     7
 10
575.5323332032
 20
355.5632396544
 30
0.0
 40
1.0
 50
270.0
 51
340.0
  0
LINE
  5
31A
  8
0
  6
CONTINUOUS
 62
     7
 10
575.5323330237
 20
354.5632401909
 30
0.0
 11
563.4327484591
 21
354.5632401909
 31
0.0
  0
ARC
  5
31B
  8
0
  6
CONTINUOUS
 62
     7
 10
563.4327482796
 20
355.5632396544
 30
0.0
 40
1.0
 50
200.0
 51
270.0
  0
LINE
  5
31C
  8
0
  6
CONTINUOUS
 62
     7
 10
562.4930556229
 20
355.2212195898
 30
0.0
 11
562.1143169998
 21
356.261793753
 31
0.0
  0
POLYLINE
  5
31D
  8
0
  6
CONTINUOUS
 62
     7
 66
     1
 10
0.0
 20
0.0
 30
0.0
  0
VERTEX
  5
8D6
  8
0
  6
CONTINUOUS
 62
     7
 10
560.9734412579
 20
354.5701021756
 30
0.0
  0
VERTEX
  5
8D7
  8
0
  6
CONTINUOUS
 62
     7
 10
561.0587233974
 20
354.5705194081
 30
0.0
  0
VERTEX
  5
8D8
  8
0
  6
CONTINUOUS
 62
     7
 10
561.1643512099
 20
354.5727285053
 30
0.0
  0
VERTEX
  5
8D9
  8
0
  6
CONTINUOUS
 62
     7
 10
561.2874236254
 20
354.5778545047
 30
0.0
  0
VERTEX
  5
8DA
  8
0
  6
CONTINUOUS
 62
     7
 10
561.4385493396
 20
354.5883188452
 30
0.0
  0
VERTEX
  5
8DB
  8
0
  6
CONTINUOUS
 62
     7
 10
561.7696782871
 20
354.6312155629
 30
0.0
  0
VERTEX
  5
8DC
  8
0
  6
CONTINUOUS
 62
     7
 10
562.0139246172
 20
354.6878958548
 30
0.0
  0
VERTEX
  5
8DD
  8
0
  6
CONTINUOUS
 62
     7
 10
562.1770578733
 20
354.74538826
 30
0.0
  0
VERTEX
  5
8DE
  8
0
  6
CONTINUOUS
 62
     7
 10
562.3790035321
 20
354.8621723856
 30
0.0
  0
VERTEX
  5
8DF
  8
0
  6
CONTINUOUS
 62
     7
 10
562.4801977834
 20
354.9803870226
 30
0.0
  0
VERTEX
  5
8E0
  8
0
  6
CONTINUOUS
 62
     7
 10
562.4930556229
 20
355.2212195898
 30
0.0
  0
SEQEND
  5
8E1
  8
0
  6
CONTINUOUS
 62
     7
  0
POLYLINE
  5
31E
  8
0
  6
CONTINUOUS
 62
     7
 66
     1
 10
0.0
 20
0.0
 30
0.0
  0
VERTEX
  5
8E2
  8
0
  6
CONTINUOUS
 62
     7
 10
576.47202586
 20
355.2212195898
 30
0.0
  0
VERTEX
  5
8E3
  8
0
  6
CONTINUOUS
 62
     7
 10
576.4648765622
 20
355.1995905544
 30
0.0
  0
VERTEX
  5
8E4
  8
0
  6
CONTINUOUS
 62
     7
 10
576.4480573422
 20
355.0363148059
 30
0.0
  0
VERTEX
  5
8E5
  8
0
  6
CONTINUOUS
 62
     7
 10
576.5515705867
 20
354.8755722548
 30
0.0
  0
VERTEX
  5
8E6
  8
0
  6
CONTINUOUS
 62
     7
 10
576.8598909786
 20
354.7174597586
 30
0.0
  0
VERTEX
  5
8E7
  8
0
  6
CONTINUOUS
 62
     7
 10
577.0496772899
 20
354.6591850425
 30
0.0
  0
VERTEX
  5
8E8
  8
0
  6
CONTINUOUS
 62
     7
 10
577.3904174863
 20
354.6022439803
 30
0.0
  0
VERTEX
  5
8E9
  8
0
  6
CONTINUOUS
 62
     7
 10
577.6618803217
 20
354.5787224974
 30
0.0
  0
VERTEX
  5
8EA
  8
0
  6
CONTINUOUS
 62
     7
 10
577.7463773562
 20
354.5746395792
 30
0.0
  0
VERTEX
  5
8EB
  8
0
  6
CONTINUOUS
 62
     7
 10
577.8375640808
 20
354.571737578
 30
0.0
  0
VERTEX
  5
8EC
  8
0
  6
CONTINUOUS
 62
     7
 10
577.8501890896
 20
354.571454456
 30
0.0
  0
VERTEX
  5
8ED
  8
0
  6
CONTINUOUS
 62
     7
 10
577.9451364948
 20
354.5701804067
 30
0.0
  0
VERTEX
  5
8EE
  8
0
  6
CONTINUOUS
 62
     7
 10
577.9916402249
 20
354.5701021756
 30
0.0
  0
SEQEND
  5
8EF
  8
0
  6
CONTINUOUS
 62
     7
  0
ARC
  5
31F
  8
0
  6
CONTINUOUS
 62
     7
 10
586.6272764769
 20
401.3238028311
 30
0.0
 40
22.5000010611285
 50
0.0000004254
 51
89.9999948314
  0
LINE
  5
320
  8
0
  6
CONTINUOUS
 62
     7
 10
609.127277538
 20
360.8857395555
 30
0.0
 11
609.127277538
 21
401.3238029982
 31
0.0
  0
ARC
  5
321
  8
0
  6
CONTINUOUS
 62
     7
 10
601.6272750548
 20
360.8857417407
 30
0.0
 40
7.500002483193247
 50
270.0000166935
 51
359.9999833065
  0
LINE
  5
322
  8
0
  6
CONTINUOUS
 62
     7
 10
537.3378042428
 20
353.3857392575
 30
0.0
 11
601.62727724
 21
353.3857392575
 31
0.0
  0
ARC
  5
323
  8
0
  6
CONTINUOUS
 62
     7
 10
537.337806428
 20
360.8857417407
 30
0.0
 40
7.500002483193134
 50
180.0000166935
 51
269.9999833065
  0
LINE
  5
324
  8
0
  6
CONTINUOUS
 62
     7
 10
529.8378039448
 20
401.3238029982
 30
0.0
 11
529.8378039448
 21
360.8857395555
 31
0.0
  0
ARC
  5
325
  8
0
  6
CONTINUOUS
 62
     7
 10
552.3378050059
 20
401.3238028311
 30
0.0
 40
22.50000106112842
 50
90.0000051686
 51
179.9999995746
  0
LINE
  5
326
  8
0
  6
CONTINUOUS
 62
     7
 10
586.6272785066
 20
423.8238038923
 30
0.0
 11
552.3378029762
 21
423.8238038923
 31
0.0
  0
INSERT
  5
32C
  8
0
  6
CONTINUOUS
 62
     7
  2
SW_NOTE_4
 10
539.3217746465
 20
341.5657484013
 30
0.0
  0
INSERT
  5
334
  8
0
  6
CONTINUOUS
 62
     7
  2
SW_CENTERMARKSYMBOL_10
 10
569.4825407414
 20
403.0632396544
 30
0.0
  0
LINE
  5
335
  8
0
  6
CONTINUOUS
 62
     7
 10
637.5369184598
 20
406.9603031929
 30
0.0
 11
646.7416935548
 21
416.1650764252
 31
0.0
  0
LINE
  5
336
  8
0
  6
CONTINUOUS
 62
     7
 10
636.0153161868
 20
400.9485731329
 30
0.0
 11
653.551416187
 21
418.484673133
 31
0.0
  0
LINE
  5
337
  8
0
  6
CONTINUOUS
 62
     7
 10
636.0115946218
 20
396.4547219182
 30
0.0
 11
658.6253155902
 21
419.0684428866
 31
0.0
  0
LINE
  5
338
  8
0
  6
CONTINUOUS
 62
     7
 10
636.0757105931
 20
392.0287119652
 30
0.0
 11
663.3207180485
 21
419.2737175579
 31
0.0
  0
LINE
  5
339
  8
0
  6
CONTINUOUS
 62
     7
 10
635.971238552
 20
387.4341093431
 30
0.0
 11
668.66148584
 21
420.1243577952
 31
0.0
  0
LINE
  5
33A
  8
0
  6
CONTINUOUS
 62
     7
 10
635.8567417547
 20
382.8294866214
 30
0.0
 11
673.1807635579
 21
420.1535081918
 31
0.0
  0
LINE
  5
33B
  8
0
  6
CONTINUOUS
 62
     7
 10
635.7857339963
 20
378.2683510761
 30
0.0
 11
676.9418639079
 21
419.4244800563
 31
0.0
  0
LINE
  5
33C
  8
0
  6
CONTINUOUS
 62
     7
 10
635.6788330659
 20
373.6713214274
 30
0.0
 11
681.1932098999
 21
419.1856982614
 31
0.0
  0
LINE
  5
33D
  8
0
  6
CONTINUOUS
 62
     7
 10
635.5895751104
 20
369.0919356848
 30
0.0
 11
685.392448394
 21
418.8948089684
 31
0.0
  0
LINE
  5
33E
  8
0
  6
CONTINUOUS
 62
     7
 10
636.0781543836
 20
365.090387171
 30
0.0
 11
689.2810516938
 21
418.2932844813
 31
0.0
  0
LINE
  5
33F
  8
0
  6
CONTINUOUS
 62
     7
 10
637.4974564597
 20
362.0195577349
 30
0.0
 11
692.7841582283
 21
417.3062613661
 31
0.0
  0
LINE
  5
340
  8
0
  6
CONTINUOUS
 62
     7
 10
639.3563539669
 20
359.3883293177
 30
0.0
 11
695.8663721517
 21
415.8983475025
 31
0.0
  0
LINE
  5
341
  8
0
  6
CONTINUOUS
 62
     7
 10
642.2438953951
 20
357.7857429589
 30
0.0
 11
698.6112144723
 21
414.1530620362
 31
0.0
  0
LINE
  5
342
  8
0
  6
CONTINUOUS
 62
     7
 10
646.0924965277
 20
357.1442144419
 30
0.0
 11
700.9985425457
 21
412.0502623226
 31
0.0
  0
LINE
  5
343
  8
0
  6
CONTINUOUS
 62
     7
 10
650.311333774
 20
356.8729239012
 30
0.0
 11
703.0259386584
 21
409.5875287856
 31
0.0
  0
LINE
  5
344
  8
0
  6
CONTINUOUS
 62
     7
 10
654.5301710203
 20
356.6016333605
 30
0.0
 11
704.6427071973
 21
406.7141695376
 31
0.0
  0
LINE
  5
345
  8
0
  6
CONTINUOUS
 62
     7
 10
658.8690175623
 20
356.4503530468
 30
0.0
 11
705.7190329715
 21
403.3003675248
 31
0.0
  0
LINE
  5
346
  8
0
  6
CONTINUOUS
 62
     7
 10
662.9792551458
 20
356.0704628433
 30
0.0
 11
706.0811460897
 21
399.1723547186
 31
0.0
  0
LINE
  5
347
  8
0
  6
CONTINUOUS
 62
     7
 10
665.962160746
 20
354.5632401909
 30
0.0
 11
706.028343825
 21
394.6294237356
 31
0.0
  0
LINE
  5
348
  8
0
  6
CONTINUOUS
 62
     7
 10
670.4522887658
 20
354.5632401909
 30
0.0
 11
705.9838154301
 21
390.0947670298
 31
0.0
  0
LINE
  5
349
  8
0
  6
CONTINUOUS
 62
     7
 10
674.9424167856
 20
354.5632401909
 30
0.0
 11
706.1541506037
 21
385.7749749402
 31
0.0
  0
LINE
  5
34A
  8
0
  6
CONTINUOUS
 62
     7
 10
681.272092922
 20
356.4027885403
 30
0.0
 11
706.243918924
 21
381.3746145423
 31
0.0
  0
LINE
  5
34B
  8
0
  6
CONTINUOUS
 62
     7
 10
685.9404320776
 20
356.5809989775
 30
0.0
 11
706.3032404467
 21
376.9438073467
 31
0.0
  0
LINE
  5
34C
  8
0
  6
CONTINUOUS
 62
     7
 10
690.6087693706
 20
356.7592094148
 30
0.0
 11
706.435369043
 21
372.585805362
 31
0.0
  0
LINE
  5
34D
  8
0
  6
CONTINUOUS
 62
     7
 10
695.4055127635
 20
357.0658231582
 30
0.0
 11
706.4043746277
 21
368.064686885
 31
0.0
  0
LINE
  5
34E
  8
0
  6
CONTINUOUS
 62
     7
 10
701.3212923839
 20
358.4914731289
 30
0.0
 11
704.1807712003
 21
361.3509519453
 31
0.0
  0
ARC
  5
34F
  8
0
  6
CONTINUOUS
 62
     7
 10
671.0312640708
 20
412.8369956191
 30
0.0
 40
8.843364198928485
 50
47.334795426
 51
132.665204574
  0
POLYLINE
  5
350
  8
0
  6
CONTINUOUS
 62
     7
 66
     1
 10
0.0
 20
0.0
 30
0.0
  0
VERTEX
  5
8F0
  8
0
  6
CONTINUOUS
 62
     7
 10
665.0379991106
 20
419.3397539164
 30
0.0
  0
VERTEX
  5
8F1
  8
0
  6
CONTINUOUS
 62
     7
 10
664.4479443267
 20
419.3229975606
 30
0.0
  0
VERTEX
  5
8F2
  8
0
  6
CONTINUOUS
 62
     7
 10
657.0447037875
 20
418.9993424769
 30
0.0
  0
VERTEX
  5
8F3
  8
0
  6
CONTINUOUS
 62
     7
 10
654.0023160115
 20
418.6363278384
 30
0.0
  0
VERTEX
  5
8F4
  8
0
  6
CONTINUOUS
 62
     7
 10
651.0099840298
 20
417.9374875928
 30
0.0
  0
VERTEX
  5
8F5
  8
0
  6
CONTINUOUS
 62
     7
 10
648.1303513929
 20
416.8982154186
 30
0.0
  0
VERTEX
  5
8F6
  8
0
  6
CONTINUOUS
 62
     7
 10
645.9126544133
 20
415.8008790071
 30
0.0
  0
VERTEX
  5
8F7
  8
0
  6
CONTINUOUS
 62
     7
 10
643.8177653536
 20
414.4720195289
 30
0.0
  0
VERTEX
  5
8F8
  8
0
  6
CONTINUOUS
 62
     7
 10
641.8920230999
 20
412.9217325206
 30
0.0
  0
VERTEX
  5
8F9
  8
0
  6
CONTINUOUS
 62
     7
 10
640.4163611069
 20
411.4321304913
 30
0.0
  0
VERTEX
  5
8FA
  8
0
  6
CONTINUOUS
 62
     7
 10
639.1055525228
 20
409.7881878222
 30
0.0
  0
VERTEX
  5
8FB
  8
0
  6
CONTINUOUS
 62
     7
 10
637.9923799023
 20
408.0130311157
 30
0.0
  0
VERTEX
  5
8FC
  8
0
  6
CONTINUOUS
 62
     7
 10
637.095106481
 20
406.1040852646
 30
0.0
  0
VERTEX
  5
8FD
  8
0
  6
CONTINUOUS
 62
     7
 10
636.4400588855
 20
404.0908638815
 30
0.0
  0
VERTEX
  5
8FE
  8
0
  6
CONTINUOUS
 62
     7
 10
636.0579819366
 20
402.0188201646
 30
0.0
  0
VERTEX
  5
8FF
  8
0
  6
CONTINUOUS
 62
     7
 10
635.9491513058
 20
399.2887085731
 30
0.0
  0
VERTEX
  5
900
  8
0
  6
CONTINUOUS
 62
     7
 10
636.0104137048
 20
396.5500837619
 30
0.0
  0
VERTEX
  5
901
  8
0
  6
CONTINUOUS
 62
     7
 10
636.0444256052
 20
393.8063851054
 30
0.0
  0
VERTEX
  5
902
  8
0
  6
CONTINUOUS
 62
     7
 10
636.0629775509
 20
392.4345505618
 30
0.0
  0
VERTEX
  5
903
  8
0
  6
CONTINUOUS
 62
     7
 10
636.084498553
 20
391.7487100078
 30
0.0
  0
VERTEX
  5
904
  8
0
  6
CONTINUOUS
 62
     7
 10
636.1233682319
 20
391.0632396544
 30
0.0
  0
SEQEND
  5
905
  8
0
  6
CONTINUOUS
 62
     7
  0
LINE
  5
351
  8
0
  6
CONTINUOUS
 62
     7
 10
633.2812660321
 20
391.0632396544
 30
0.0
 11
636.1233682319
 21
391.0632396544
 31
0.0
  0
LINE
  5
352
  8
0
  6
CONTINUOUS
 62
     7
 10
633.2812660321
 20
402.0632395948
 30
0.0
 11
633.2812660321
 21
391.0632396544
 31
0.0
  0
POLYLINE
  5
353
  8
0
  6
CONTINUOUS
 62
     7
 66
     1
 10
0.0
 20
0.0
 30
0.0
  0
VERTEX
  5
906
  8
0
  6
CONTINUOUS
 62
     7
 10
657.2812643781
 20
422.0632391478
 30
0.0
  0
VERTEX
  5
907
  8
0
  6
CONTINUOUS
 62
     7
 10
654.3771584466
 20
421.916404968
 30
0.0
  0
VERTEX
  5
908
  8
0
  6
CONTINUOUS
 62
     7
 10
651.3114140317
 20
421.4343673046
 30
0.0
  0
VERTEX
  5
909
  8
0
  6
CONTINUOUS
 62
     7
 10
648.1715884939
 20
420.5668328757
 30
0.0
  0
VERTEX
  5
90A
  8
0
  6
CONTINUOUS
 62
     7
 10
645.8432950958
 20
419.6453953589
 30
0.0
  0
VERTEX
  5
90B
  8
0
  6
CONTINUOUS
 62
     7
 10
643.6078526959
 20
418.5004925783
 30
0.0
  0
VERTEX
  5
90C
  8
0
  6
CONTINUOUS
 62
     7
 10
641.5280063584
 20
417.1512781139
 30
0.0
  0
VERTEX
  5
90D
  8
0
  6
CONTINUOUS
 62
     7
 10
639.6517061576
 20
415.6344386245
 30
0.0
  0
VERTEX
  5
90E
  8
0
  6
CONTINUOUS
 62
     7
 10
638.0171977863
 20
413.9914831574
 30
0.0
  0
VERTEX
  5
90F
  8
0
  6
CONTINUOUS
 62
     7
 10
636.6386727378
 20
412.2656455691
 30
0.0
  0
VERTEX
  5
910
  8
0
  6
CONTINUOUS
 62
     7
 10
635.5205007776
 20
410.49873293
 30
0.0
  0
VERTEX
  5
911
  8
0
  6
CONTINUOUS
 62
     7
 10
634.6518003329
 20
408.7251482959
 30
0.0
  0
VERTEX
  5
912
  8
0
  6
CONTINUOUS
 62
     7
 10
634.0163663909
 20
406.9752844478
 30
0.0
  0
VERTEX
  5
913
  8
0
  6
CONTINUOUS
 62
     7
 10
633.5919962212
 20
405.2709361966
 30
0.0
  0
VERTEX
  5
914
  8
0
  6
CONTINUOUS
 62
     7
 10
633.354948549
 20
403.6299840043
 30
0.0
  0
VERTEX
  5
915
  8
0
  6
CONTINUOUS
 62
     7
 10
633.2812660321
 20
402.0632395948
 30
0.0
  0
SEQEND
  5
916
  8
0
  6
CONTINUOUS
 62
     7
  0
LINE
  5
354
  8
0
  6
CONTINUOUS
 62
     7
 10
671.0312643036
 20
422.0632391478
 30
0.0
 11
657.2812643781
 21
422.0632391478
 31
0.0
  0
LINE
  5
355
  8
0
  6
CONTINUOUS
 62
     7
 10
684.7812642291
 20
422.0632391478
 30
0.0
 11
671.0312643036
 21
422.0632391478
 31
0.0
  0
POLYLINE
  5
356
  8
0
  6
CONTINUOUS
 62
     7
 66
     1
 10
0.0
 20
0.0
 30
0.0
  0
VERTEX
  5
917
  8
0
  6
CONTINUOUS
 62
     7
 10
708.7812625751
 20
402.0632395948
 30
0.0
  0
VERTEX
  5
918
  8
0
  6
CONTINUOUS
 62
     7
 10
708.7075800583
 20
403.629985867
 30
0.0
  0
VERTEX
  5
919
  8
0
  6
CONTINUOUS
 62
     7
 10
708.4705286607
 20
405.2709389905
 30
0.0
  0
VERTEX
  5
91A
  8
0
  6
CONTINUOUS
 62
     7
 10
708.0461622163
 20
406.9752881731
 30
0.0
  0
VERTEX
  5
91B
  8
0
  6
CONTINUOUS
 62
     7
 10
707.4107282743
 20
408.7251538838
 30
0.0
  0
VERTEX
  5
91C
  8
0
  6
CONTINUOUS
 62
     7
 10
706.5420241043
 20
410.4987385179
 30
0.0
  0
VERTEX
  5
91D
  8
0
  6
CONTINUOUS
 62
     7
 10
705.4238521442
 20
412.2656492944
 30
0.0
  0
VERTEX
  5
91E
  8
0
  6
CONTINUOUS
 62
     7
 10
704.0453270957
 20
413.9914887453
 30
0.0
  0
VERTEX
  5
91F
  8
0
  6
CONTINUOUS
 62
     7
 10
702.4108187243
 20
415.6344423498
 30
0.0
  0
VERTEX
  5
920
  8
0
  6
CONTINUOUS
 62
     7
 10
700.5345185235
 20
417.1512799765
 30
0.0
  0
VERTEX
  5
921
  8
0
  6
CONTINUOUS
 62
     7
 10
698.4546740487
 20
418.5004925783
 30
0.0
  0
VERTEX
  5
922
  8
0
  6
CONTINUOUS
 62
     7
 10
696.2192335114
 20
419.6453953589
 30
0.0
  0
VERTEX
  5
923
  8
0
  6
CONTINUOUS
 62
     7
 10
693.890941976
 20
420.5668328757
 30
0.0
  0
VERTEX
  5
924
  8
0
  6
CONTINUOUS
 62
     7
 10
690.7511164382
 20
421.4343673046
 30
0.0
  0
VERTEX
  5
925
  8
0
  6
CONTINUOUS
 62
     7
 10
687.6853720233
 20
421.916404968
 30
0.0
  0
VERTEX
  5
926
  8
0
  6
CONTINUOUS
 62
     7
 10
684.7812642291
 20
422.0632391478
 30
0.0
  0
SEQEND
  5
927
  8
0
  6
CONTINUOUS
 62
     7
  0
LINE
  5
357
  8
0
  6
CONTINUOUS
 62
     7
 10
708.7812625751
 20
391.0632396544
 30
0.0
 11
708.7812625751
 21
402.0632395948
 31
0.0
  0
LINE
  5
358
  8
0
  6
CONTINUOUS
 62
     7
 10
705.9391603753
 20
391.0632396544
 30
0.0
 11
708.7812625751
 21
391.0632396544
 31
0.0
  0
POLYLINE
  5
359
  8
0
  6
CONTINUOUS
 62
     7
 66
     1
 10
0.0
 20
0.0
 30
0.0
  0
VERTEX
  5
928
  8
0
  6
CONTINUOUS
 62
     7
 10
705.9391603753
 20
391.0632396544
 30
0.0
  0
VERTEX
  5
929
  8
0
  6
CONTINUOUS
 62
     7
 10
705.9708253428
 20
391.5894979689
 30
0.0
  0
VERTEX
  5
92A
  8
0
  6
CONTINUOUS
 62
     7
 10
705.9913330659
 20
392.1162828299
 30
0.0
  0
VERTEX
  5
92B
  8
0
  6
CONTINUOUS
 62
     7
 10
706.0101420566
 20
393.1705199609
 30
0.0
  0
VERTEX
  5
92C
  8
0
  6
CONTINUOUS
 62
     7
 10
706.0364500567
 20
395.2789993453
 30
0.0
  0
VERTEX
  5
92D
  8
0
  6
CONTINUOUS
 62
     7
 10
706.0848639294
 20
399.4960098023
 30
0.0
  0
VERTEX
  5
92E
  8
0
  6
CONTINUOUS
 62
     7
 10
706.0108163342
 20
401.538179485
 30
0.0
  0
VERTEX
  5
92F
  8
0
  6
CONTINUOUS
 62
     7
 10
705.72510892
 20
403.5655802543
 30
0.0
  0
VERTEX
  5
930
  8
0
  6
CONTINUOUS
 62
     7
 10
705.1853031799
 20
405.5295179094
 30
0.0
  0
VERTEX
  5
931
  8
0
  6
CONTINUOUS
 62
     7
 10
703.9530330285
 20
408.2199411894
 30
0.0
  0
VERTEX
  5
932
  8
0
  6
CONTINUOUS
 62
     7
 10
702.2915274784
 20
410.6708841826
 30
0.0
  0
VERTEX
  5
933
  8
0
  6
CONTINUOUS
 62
     7
 10
700.2618272736
 20
412.8362054433
 30
0.0
  0
VERTEX
  5
934
  8
0
  6
CONTINUOUS
 62
     7
 10
697.9405243829
 20
414.6881366576
 30
0.0
  0
VERTEX
  5
935
  8
0
  6
CONTINUOUS
 62
     7
 10
695.9936150297
 20
415.8898016865
 30
0.0
  0
VERTEX
  5
936
  8
0
  6
CONTINUOUS
 62
     7
 10
693.9330377564
 20
416.8976696636
 30
0.0
  0
VERTEX
  5
937
  8
0
  6
CONTINUOUS
 62
     7
 10
691.7921674385
 20
417.7082965578
 30
0.0
  0
VERTEX
  5
938
  8
0
  6
CONTINUOUS
 62
     7
 10
688.7415402517
 20
418.4827434326
 30
0.0
  0
VERTEX
  5
939
  8
0
  6
CONTINUOUS
 62
     7
 10
685.6108584389
 20
418.9217148776
 30
0.0
  0
VERTEX
  5
93A
  8
0
  6
CONTINUOUS
 62
     7
 10
682.4415192887
 20
419.1439284439
 30
0.0
  0
VERTEX
  5
93B
  8
0
  6
CONTINUOUS
 62
     7
 10
679.2749228835
 20
419.2681054081
 30
0.0
  0
VERTEX
  5
93C
  8
0
  6
CONTINUOUS
 62
     7
 10
677.0245290309
 20
419.3397539164
 30
0.0
  0
SEQEND
  5
93D
  8
0
  6
CONTINUOUS
 62
     7
  0
LINE
  5
35A
  8
0
  6
CONTINUOUS
 62
     7
 10
662.5221648201
 20
354.5701021756
 30
0.0
 11
661.9239977509
 21
356.3595155681
 31
0.0
  0
ARC
  5
35B
  8
0
  6
CONTINUOUS
 62
     7
 10
662.7199207509
 20
357.3903550044
 30
0.0
 40
2.827177643279478
 50
265.9889891423
 51
270.3819833806
  0
LINE
  5
35C
  8
0
  6
CONTINUOUS
 62
     7
 10
662.5245033711
 20
354.5632401909
 30
0.0
 11
662.7387690306
 21
354.5632401909
 31
0.0
  0
LINE
  5
35D
  8
0
  6
CONTINUOUS
 62
     7
 10
640.7471892372
 20
354.5632401909
 30
0.0
 11
662.5245033711
 21
354.5632401909
 31
0.0
  0
ARC
  5
35E
  8
0
  6
CONTINUOUS
 62
     7
 10
640.7311558166
 20
362.0871578611
 30
0.0
 40
7.52393475375843
 50
233.0702194654
 51
270.1220967556
  0
POLYLINE
  5
35F
  8
0
  6
CONTINUOUS
 62
     7
 66
     1
 10
0.0
 20
0.0
 30
0.0
  0
VERTEX
  5
93E
  8
0
  6
CONTINUOUS
 62
     7
 10
634.8034270987
 20
357.468098631
 30
0.0
  0
VERTEX
  5
93F
  8
0
  6
CONTINUOUS
 62
     7
 10
635.4537584767
 20
356.7295821811
 30
0.0
  0
VERTEX
  5
940
  8
0
  6
CONTINUOUS
 62
     7
 10
636.2105064973
 20
356.0727315451
 30
0.0
  0
SEQEND
  5
941
  8
0
  6
CONTINUOUS
 62
     7
  0
ARC
  5
360
  8
0
  6
CONTINUOUS
 62
     7
 10
640.6628377996
 20
361.9575304449
 30
0.0
 40
7.381577864802932
 50
179.9263568127
 51
217.4590360158
  0
LINE
  5
361
  8
0
  6
CONTINUOUS
 62
     7
 10
633.2812660321
 20
391.0632396544
 30
0.0
 11
633.2812660321
 21
361.9670181031
 31
0.0
  0
POLYLINE
  5
362
  8
0
  6
CONTINUOUS
 62
     7
 66
     1
 10
0.0
 20
0.0
 30
0.0
  0
VERTEX
  5
942
  8
0
  6
CONTINUOUS
 62
     7
 10
636.1233682319
 20
391.0632396544
 30
0.0
  0
VERTEX
  5
943
  8
0
  6
CONTINUOUS
 62
     7
 10
635.9031365201
 20
385.8095768335
 30
0.0
  0
VERTEX
  5
944
  8
0
  6
CONTINUOUS
 62
     7
 10
635.7394547149
 20
375.2955088819
 30
0.0
  0
VERTEX
  5
945
  8
0
  6
CONTINUOUS
 62
     7
 10
635.6729024038
 20
373.175457349
 30
0.0
  0
VERTEX
  5
946
  8
0
  6
CONTINUOUS
 62
     7
 10
635.5791293964
 20
371.0428907032
 30
0.0
  0
VERTEX
  5
947
  8
0
  6
CONTINUOUS
 62
     7
 10
635.5576419219
 20
368.9173909332
 30
0.0
  0
VERTEX
  5
948
  8
0
  6
CONTINUOUS
 62
     7
 10
635.7079350337
 20
366.8185418899
 30
0.0
  0
VERTEX
  5
949
  8
0
  6
CONTINUOUS
 62
     7
 10
636.1295149609
 20
364.7659274246
 30
0.0
  0
VERTEX
  5
94A
  8
0
  6
CONTINUOUS
 62
     7
 10
636.5805917367
 20
363.6470830495
 30
0.0
  0
VERTEX
  5
94B
  8
0
  6
CONTINUOUS
 62
     7
 10
637.1723578259
 20
362.5840826387
 30
0.0
  0
VERTEX
  5
94C
  8
0
  6
CONTINUOUS
 62
     7
 10
637.7804518625
 20
361.5296448077
 30
0.0
  0
VERTEX
  5
94D
  8
0
  6
CONTINUOUS
 62
     7
 10
638.4626866266
 20
360.4083678181
 30
0.0
  0
VERTEX
  5
94E
  8
0
  6
CONTINUOUS
 62
     7
 10
639.3127829715
 20
359.416783085
 30
0.0
  0
VERTEX
  5
94F
  8
0
  6
CONTINUOUS
 62
     7
 10
640.3538749501
 20
358.6125078107
 30
0.0
  0
VERTEX
  5
950
  8
0
  6
CONTINUOUS
 62
     7
 10
641.5108923748
 20
357.9812201167
 30
0.0
  0
VERTEX
  5
951
  8
0
  6
CONTINUOUS
 62
     7
 10
642.8208199277
 20
357.5121501888
 30
0.0
  0
VERTEX
  5
952
  8
0
  6
CONTINUOUS
 62
     7
 10
644.1910059139
 20
357.2664896454
 30
0.0
  0
VERTEX
  5
953
  8
0
  6
CONTINUOUS
 62
     7
 10
649.677421613
 20
356.8356709982
 30
0.0
  0
VERTEX
  5
954
  8
0
  6
CONTINUOUS
 62
     7
 10
655.1743426308
 20
356.5602118577
 30
0.0
  0
VERTEX
  5
955
  8
0
  6
CONTINUOUS
 62
     7
 10
661.9239977509
 20
356.3595155681
 30
0.0
  0
SEQEND
  5
956
  8
0
  6
CONTINUOUS
 62
     7
  0
LINE
  5
363
  8
0
  6
CONTINUOUS
 62
     7
 10
708.7812625751
 20
361.9670181031
 30
0.0
 11
708.7812625751
 21
391.0632396544
 31
0.0
  0
ARC
  5
364
  8
0
  6
CONTINUOUS
 62
     7
 10
701.3995008195
 20
361.9575723589
 30
0.0
 40
7.38176779901466
 50
322.6718305124
 51
0.0733159645
  0
POLYLINE
  5
365
  8
0
  6
CONTINUOUS
 62
     7
 66
     1
 10
0.0
 20
0.0
 30
0.0
  0
VERTEX
  5
957
  8
0
  6
CONTINUOUS
 62
     7
 10
705.8520221099
 20
356.0727315451
 30
0.0
  0
VERTEX
  5
958
  8
0
  6
CONTINUOUS
 62
     7
 10
706.6017591342
 20
356.7226158882
 30
0.0
  0
VERTEX
  5
959
  8
0
  6
CONTINUOUS
 62
     7
 10
707.2693013534
 20
357.4814202691
 30
0.0
  0
SEQEND
  5
95A
  8
0
  6
CONTINUOUS
 62
     7
  0
ARC
  5
366
  8
0
  6
CONTINUOUS
 62
     7
 10
701.3319645909
 20
362.0853792419
 30
0.0
 40
7.522157423259581
 50
269.8733666805
 51
306.9343170985
  0
LINE
  5
367
  8
0
  6
CONTINUOUS
 62
     7
 10
679.5380252361
 20
354.5632401909
 30
0.0
 11
701.3153393701
 21
354.5632401909
 31
0.0
  0
LINE
  5
368
  8
0
  6
CONTINUOUS
 62
     7
 10
679.3237595767
 20
354.5632401909
 30
0.0
 11
679.5380252361
 21
354.5632401909
 31
0.0
  0
ARC
  5
369
  8
0
  6
CONTINUOUS
 62
     7
 10
679.3417578272
 20
357.4171868731
 30
0.0
 40
2.854003434178348
 50
269.6386722528
 51
273.9903552243
  0
LINE
  5
36A
  8
0
  6
CONTINUOUS
 62
     7
 10
680.1385308564
 20
356.3595155681
 30
0.0
 11
679.5403637871
 21
354.5701021756
 31
0.0
  0
POLYLINE
  5
36B
  8
0
  6
CONTINUOUS
 62
     7
 66
     1
 10
0.0
 20
0.0
 30
0.0
  0
VERTEX
  5
95B
  8
0
  6
CONTINUOUS
 62
     7
 10
680.1385308564
 20
356.3595155681
 30
0.0
  0
VERTEX
  5
95C
  8
0
  6
CONTINUOUS
 62
     7
 10
686.0946376756
 20
356.5289715732
 30
0.0
  0
VERTEX
  5
95D
  8
0
  6
CONTINUOUS
 62
     7
 10
692.0459845051
 20
356.8140717651
 30
0.0
  0
VERTEX
  5
95E
  8
0
  6
CONTINUOUS
 62
     7
 10
697.0113829657
 20
357.1861612107
 30
0.0
  0
VERTEX
  5
95F
  8
0
  6
CONTINUOUS
 62
     7
 10
698.7221070513
 20
357.4099468495
 30
0.0
  0
VERTEX
  5
960
  8
0
  6
CONTINUOUS
 62
     7
 10
700.3653288767
 20
357.8979673292
 30
0.0
  0
VERTEX
  5
961
  8
0
  6
CONTINUOUS
 62
     7
 10
701.544888033
 20
358.5091794337
 30
0.0
  0
VERTEX
  5
962
  8
0
  6
CONTINUOUS
 62
     7
 10
702.6140817389
 20
359.2940980996
 30
0.0
  0
VERTEX
  5
963
  8
0
  6
CONTINUOUS
 62
     7
 10
703.5153002426
 20
360.2849191482
 30
0.0
  0
VERTEX
  5
964
  8
0
  6
CONTINUOUS
 62
     7
 10
704.2269946024
 20
361.4250032659
 30
0.0
  0
VERTEX
  5
965
  8
0
  6
CONTINUOUS
 62
     7
 10
704.9684577569
 20
362.7689464445
 30
0.0
  0
VERTEX
  5
966
  8
0
  6
CONTINUOUS
 62
     7
 10
705.6601212308
 20
364.1374523248
 30
0.0
  0
VERTEX
  5
967
  8
0
  6
CONTINUOUS
 62
     7
 10
706.1357476696
 20
365.5772267337
 30
0.0
  0
VERTEX
  5
968
  8
0
  6
CONTINUOUS
 62
     7
 10
706.4653576299
 20
368.1188675071
 30
0.0
  0
VERTEX
  5
969
  8
0
  6
CONTINUOUS
 62
     7
 10
706.5026328847
 20
370.6943488176
 30
0.0
  0
VERTEX
  5
96A
  8
0
  6
CONTINUOUS
 62
     7
 10
706.4019494638
 20
373.2834516521
 30
0.0
  0
VERTEX
  5
96B
  8
0
  6
CONTINUOUS
 62
     7
 10
706.3176722213
 20
375.8659579287
 30
0.0
  0
VERTEX
  5
96C
  8
0
  6
CONTINUOUS
 62
     7
 10
706.2159270927
 20
383.4654365162
 30
0.0
  0
VERTEX
  5
96D
  8
0
  6
CONTINUOUS
 62
     7
 10
706.1142937228
 20
387.2650966476
 30
0.0
  0
VERTEX
  5
96E
  8
0
  6
CONTINUOUS
 62
     7
 10
705.9391603753
 20
391.0632396544
 30
0.0
  0
SEQEND
  5
96F
  8
0
  6
CONTINUOUS
 62
     7
  0
LINE
  5
36C
  8
0
  6
CONTINUOUS
 62
     7
 10
676.2919953972
 20
419.4651397373
 30
0.0
 11
677.0245290309
 21
419.3397539164
 31
0.0
  0
ARC
  5
36D
  8
0
  6
CONTINUOUS
 62
     7
 10
671.0312640708
 20
414.2340138891
 30
0.0
 40
7.418892891009163
 50
44.838325625
 51
135.161674375
  0
LINE
  5
36E
  8
0
  6
CONTINUOUS
 62
     7
 10
665.0379991106
 20
419.3397539164
 30
0.0
 11
665.7705327444
 21
419.4651397373
 31
0.0
  0
ARC
  5
36F
  8
0
  6
CONTINUOUS
 62
     7
 10
671.0312643036
 20
403.0632396544
 30
0.0
 40
17.22491203961319
 50
72.2169205454
 51
107.783081267
  0
POLYLINE
  5
370
  8
0
  6
CONTINUOUS
 62
     7
 66
     1
 10
0.0
 20
0.0
 30
0.0
  0
VERTEX
  5
970
  8
0
  6
CONTINUOUS
 62
     7
 10
678.002815409
 20
355.0731542016
 30
0.0
  0
VERTEX
  5
971
  8
0
  6
CONTINUOUS
 62
     7
 10
678.0994778447
 20
354.8939304854
 30
0.0
  0
VERTEX
  5
972
  8
0
  6
CONTINUOUS
 62
     7
 10
678.4086145408
 20
354.7174597586
 30
0.0
  0
VERTEX
  5
973
  8
0
  6
CONTINUOUS
 62
     7
 10
678.6077559873
 20
354.6594532634
 30
0.0
  0
VERTEX
  5
974
  8
0
  6
CONTINUOUS
 62
     7
 10
678.9391410485
 20
354.6022439803
 30
0.0
  0
VERTEX
  5
975
  8
0
  6
CONTINUOUS
 62
     7
 10
679.2106038838
 20
354.5787224974
 30
0.0
  0
VERTEX
  5
976
  8
0
  6
CONTINUOUS
 62
     7
 10
679.2951009184
 20
354.5746395792
 30
0.0
  0
VERTEX
  5
977
  8
0
  6
CONTINUOUS
 62
     7
 10
679.386287643
 20
354.571737578
 30
0.0
  0
VERTEX
  5
978
  8
0
  6
CONTINUOUS
 62
     7
 10
679.3989126518
 20
354.571454456
 30
0.0
  0
VERTEX
  5
979
  8
0
  6
CONTINUOUS
 62
     7
 10
679.493860057
 20
354.5701804067
 30
0.0
  0
VERTEX
  5
97A
  8
0
  6
CONTINUOUS
 62
     7
 10
679.5403637871
 20
354.5701021756
 30
0.0
  0
SEQEND
  5
97B
  8
0
  6
CONTINUOUS
 62
     7
  0
LINE
  5
371
  8
0
  6
CONTINUOUS
 62
     7
 10
679.3237595767
 20
354.5632401909
 30
0.0
 11
677.1308851376
 21
354.5632401909
 31
0.0
  0
ARC
  5
372
  8
0
  6
CONTINUOUS
 62
     7
 10
677.1309563184
 20
355.5635564654
 30
0.0
 40
1.000316277056818
 50
269.9959229302
 51
330.6431687474
  0
ARC
  5
373
  8
0
  6
CONTINUOUS
 62
     7
 10
680.1999801076
 20
353.8413731408
 30
0.0
 40
2.518892076842481
 50
91.3978892153
 51
150.7240073381
  0
ARC
  5
374
  8
0
  6
CONTINUOUS
 62
     7
 10
661.8640401963
 20
353.8438497698
 30
0.0
 40
2.516380201263555
 50
29.2434138059
 51
88.6346896406
  0
POLYLINE
  5
375
  8
0
  6
CONTINUOUS
 62
     7
 66
     1
 10
0.0
 20
0.0
 30
0.0
  0
VERTEX
  5
97C
  8
0
  6
CONTINUOUS
 62
     7
 10
662.5221648201
 20
354.5701021756
 30
0.0
  0
VERTEX
  5
97D
  8
0
  6
CONTINUOUS
 62
     7
 10
662.6074469596
 20
354.5705194081
 30
0.0
  0
VERTEX
  5
97E
  8
0
  6
CONTINUOUS
 62
     7
 10
662.713074772
 20
354.5727285053
 30
0.0
  0
VERTEX
  5
97F
  8
0
  6
CONTINUOUS
 62
     7
 10
662.8361471876
 20
354.5778545047
 30
0.0
  0
VERTEX
  5
980
  8
0
  6
CONTINUOUS
 62
     7
 10
662.9872729018
 20
354.5883188452
 30
0.0
  0
VERTEX
  5
981
  8
0
  6
CONTINUOUS
 62
     7
 10
663.3184018493
 20
354.6312155629
 30
0.0
  0
VERTEX
  5
982
  8
0
  6
CONTINUOUS
 62
     7
 10
663.5659390077
 20
354.6879480089
 30
0.0
  0
VERTEX
  5
983
  8
0
  6
CONTINUOUS
 62
     7
 10
663.7257814355
 20
354.74538826
 30
0.0
  0
VERTEX
  5
984
  8
0
  6
CONTINUOUS
 62
     7
 10
663.9300242014
 20
354.8622170891
 30
0.0
  0
VERTEX
  5
985
  8
0
  6
CONTINUOUS
 62
     7
 10
664.0289213456
 20
354.9803870226
 30
0.0
  0
VERTEX
  5
986
  8
0
  6
CONTINUOUS
 62
     7
 10
664.0597131982
 20
355.0731542016
 30
0.0
  0
SEQEND
  5
987
  8
0
  6
CONTINUOUS
 62
     7
  0
LINE
  5
376
  8
0
  6
CONTINUOUS
 62
     7
 10
664.9316434696
 20
354.5632401909
 30
0.0
 11
662.7387690306
 21
354.5632401909
 31
0.0
  0
ARC
  5
377
  8
0
  6
CONTINUOUS
 62
     7
 10
664.9315959572
 20
355.5635969374
 30
0.0
 40
1.00035674762162
 50
209.3581870353
 51
270.0027212871
  0
LINE
  5
378
  8
0
  6
CONTINUOUS
 62
     7
 10
677.1308851376
 20
354.5632401909
 30
0.0
 11
664.9316434696
 21
354.5632401909
 31
0.0
  0
ARC
  5
379
  8
0
  6
CONTINUOUS
 62
     7
 10
688.1760000391
 20
401.3238028311
 30
0.0
 40
22.50000106112842
 50
0.0000004254
 51
89.9999948314
  0
LINE
  5
37A
  8
0
  6
CONTINUOUS
 62
     7
 10
710.6760011002
 20
360.8857395555
 30
0.0
 11
710.6760011002
 21
401.3238029982
 31
0.0
  0
ARC
  5
37B
  8
0
  6
CONTINUOUS
 62
     7
 10
703.175998617
 20
360.8857417407
 30
0.0
 40
7.500002483193304
 50
270.0000166935
 51
359.9999833065
  0
LINE
  5
37C
  8
0
  6
CONTINUOUS
 62
     7
 10
638.886527805
 20
353.3857392575
 30
0.0
 11
703.1760008022
 21
353.3857392575
 31
0.0
  0
ARC
  5
37D
  8
0
  6
CONTINUOUS
 62
     7
 10
638.8865299902
 20
360.8857417407
 30
0.0
 40
7.500002483193304
 50
180.0000166935
 51
269.9999833065
  0
LINE
  5
37E
  8
0
  6
CONTINUOUS
 62
     7
 10
631.386527507
 20
401.3238029982
 30
0.0
 11
631.386527507
 21
360.8857395555
 31
0.0
  0
ARC
  5
37F
  8
0
  6
CONTINUOUS
 62
     7
 10
653.8865285681
 20
401.3238028311
 30
0.0
 40
22.50000106112839
 50
90.0000051686
 51
179.9999995746
  0
LINE
  5
380
  8
0
  6
CONTINUOUS
 62
     7
 10
688.1760020688
 20
423.8238038923
 30
0.0
 11
653.8865265384
 21
423.8238038923
 31
0.0
  0
INSERT
  5
386
  8
0
  6
CONTINUOUS
 62
     7
  2
SW_NOTE_5
 10
641.2587038706
 20
339.2355089053
 30
0.0
  0
LINE
  5
387
  8
0
  6
CONTINUOUS
 62
     7
 10
734.906234269
 20
408.4578065629
 30
0.0
 11
745.9479947136
 21
419.4995688702
 31
0.0
  0
LINE
  5
388
  8
0
  6
CONTINUOUS
 62
     7
 10
733.6182039724
 20
402.6796484793
 30
0.0
 11
752.5162924574
 21
421.577738827
 31
0.0
  0
LINE
  5
389
  8
0
  6
CONTINUOUS
 62
     7
 10
733.6182039724
 20
398.1895202267
 30
0.0
 11
757.5242998572
 21
422.0956175084
 31
0.0
  0
LINE
  5
38A
  8
0
  6
CONTINUOUS
 62
     7
 10
733.6182039724
 20
393.6993922069
 30
0.0
 11
762.0144276442
 21
422.0956175084
 31
0.0
  0
LINE
  5
38B
  8
0
  6
CONTINUOUS
 62
     7
 10
733.6182039724
 20
389.209264187
 30
0.0
 11
766.5045558968
 21
422.0956175084
 31
0.0
  0
LINE
  5
38C
  8
0
  6
CONTINUOUS
 62
     7
 10
733.6182039724
 20
384.7191359344
 30
0.0
 11
770.9946838002
 21
422.0956175084
 31
0.0
  0
LINE
  5
38D
  8
0
  6
CONTINUOUS
 62
     7
 10
733.6182039724
 20
380.2290076817
 30
0.0
 11
775.4848119365
 21
422.0956175084
 31
0.0
  0
LINE
  5
38E
  8
0
  6
CONTINUOUS
 62
     7
 10
733.6182039724
 20
375.7388798947
 30
0.0
 11
779.9749397235
 21
422.0956175084
 31
0.0
  0
LINE
  5
38F
  8
0
  6
CONTINUOUS
 62
     7
 10
733.6182039724
 20
371.2487521077
 30
0.0
 11
784.4650675105
 21
422.0956175084
 31
0.0
  0
LINE
  5
390
  8
0
  6
CONTINUOUS
 62
     7
 10
733.6182039724
 20
366.7586243208
 30
0.0
 11
788.6575967567
 21
421.798017105
 31
0.0
  0
LINE
  5
391
  8
0
  6
CONTINUOUS
 62
     7
 10
733.6182039724
 20
362.2684965338
 30
0.0
 11
792.4028359847
 21
421.053128546
 31
0.0
  0
LINE
  5
392
  8
0
  6
CONTINUOUS
 62
     7
 10
734.5189232872
 20
358.6790861989
 30
0.0
 11
795.7961507635
 21
419.9563155378
 31
0.0
  0
LINE
  5
393
  8
0
  6
CONTINUOUS
 62
     7
 10
736.487213944
 20
356.1572509314
 30
0.0
 11
798.819195901
 21
418.4892328883
 31
0.0
  0
LINE
  5
394
  8
0
  6
CONTINUOUS
 62
     7
 10
739.6220122026
 20
354.8019195403
 30
0.0
 11
801.5041281031
 21
416.6840373035
 31
0.0
  0
LINE
  5
395
  8
0
  6
CONTINUOUS
 62
     7
 10
743.8484583543
 20
354.5382397677
 30
0.0
 11
803.8571183132
 21
414.5468978639
 31
0.0
  0
LINE
  5
396
  8
0
  6
CONTINUOUS
 62
     7
 10
748.3385861413
 20
354.5382397677
 30
0.0
 11
805.898901497
 21
412.0985551233
 31
0.0
  0
LINE
  5
397
  8
0
  6
CONTINUOUS
 62
     7
 10
752.828715791
 20
354.5382397677
 30
0.0
 11
807.5162176536
 21
409.225743493
 31
0.0
  0
LINE
  5
398
  8
0
  6
CONTINUOUS
 62
     7
 10
757.3188426466
 20
354.5382397677
 30
0.0
 11
808.6760309087
 21
405.8954280297
 31
0.0
  0
LINE
  5
399
  8
0
  6
CONTINUOUS
 62
     7
 10
761.8089713649
 20
354.5382397677
 30
0.0
 11
809.1755811618
 21
401.9048486332
 31
0.0
  0
LINE
  5
39A
  8
0
  6
CONTINUOUS
 62
     7
 10
766.2990991519
 20
354.5382397677
 30
0.0
 11
809.1755811618
 21
397.4147208462
 31
0.0
  0
LINE
  5
39B
  8
0
  6
CONTINUOUS
 62
     7
 10
770.7892271718
 20
354.5382397677
 30
0.0
 11
809.1755811618
 21
392.92459271
 31
0.0
  0
LINE
  5
39C
  8
0
  6
CONTINUOUS
 62
     7
 10
775.2793551916
 20
354.5382397677
 30
0.0
 11
809.1755811618
 21
388.4344645738
 31
0.0
  0
POLYLINE
  5
39D
  8
0
  6
CONTINUOUS
 62
     7
 66
     1
 10
0.0
 20
0.0
 30
0.0
  0
VERTEX
  5
988
  8
0
  6
CONTINUOUS
 62
     7
 10
779.7694834442
 20
354.5382397677
 30
0.0
  0
VERTEX
  5
989
  8
0
  6
CONTINUOUS
 62
     7
 10
779.8472237335
 20
354.6159791256
 30
0.0
  0
VERTEX
  5
98A
  8
0
  6
CONTINUOUS
 62
     7
 10
809.1755811618
 20
383.9443365539
 30
0.0
  0
SEQEND
  5
98B
  8
0
  6
CONTINUOUS
 62
     7
  0
LINE
  5
39E
  8
0
  6
CONTINUOUS
 62
     7
 10
784.2596112312
 20
354.5382397677
 30
0.0
 11
809.1755811618
 21
379.4542087669
 31
0.0
  0
LINE
  5
39F
  8
0
  6
CONTINUOUS
 62
     7
 10
788.7497399496
 20
354.5382397677
 30
0.0
 11
809.1755811618
 21
374.96408098
 31
0.0
  0
LINE
  5
3A0
  8
0
  6
CONTINUOUS
 62
     7
 10
793.2398677365
 20
354.5382397677
 30
0.0
 11
809.1755811618
 21
370.473953193
 31
0.0
  0
LINE
  5
3A1
  8
0
  6
CONTINUOUS
 62
     7
 10
797.7299955235
 20
354.5382397677
 30
0.0
 11
809.1755811618
 21
365.9838235433
 31
0.0
  0
LINE
  5
3A2
  8
0
  6
CONTINUOUS
 62
     7
 10
802.3541387664
 20
354.6722533609
 30
0.0
 11
809.0444136904
 21
361.3625301476
 31
0.0
  0
ARC
  5
3A3
  8
0
  6
CONTINUOUS
 62
     7
 10
788.5379384026
 20
401.3238028311
 30
0.0
 40
22.50000106112839
 50
0.0000004254
 51
89.9999948314
  0
LINE
  5
3A4
  8
0
  6
CONTINUOUS
 62
     7
 10
811.0379394637
 20
360.8857395555
 30
0.0
 11
811.0379394637
 21
401.3238029982
 31
0.0
  0
ARC
  5
3A5
  8
0
  6
CONTINUOUS
 62
     7
 10
803.5379369805
 20
360.8857417407
 30
0.0
 40
7.500002483193247
 50
270.0000166935
 51
359.9999833065
  0
LINE
  5
3A6
  8
0
  6
CONTINUOUS
 62
     7
 10
739.2484661685
 20
353.3857392575
 30
0.0
 11
803.5379391657
 21
353.3857392575
 31
0.0
  0
ARC
  5
3A7
  8
0
  6
CONTINUOUS
 62
     7
 10
739.2484683537
 20
360.8857417407
 30
0.0
 40
7.500002483193247
 50
180.0000166935
 51
269.9999833065
  0
LINE
  5
3A8
  8
0
  6
CONTINUOUS
 62
     7
 10
731.7484658705
 20
401.3238029982
 30
0.0
 11
731.7484658705
 21
360.8857395555
 31
0.0
  0
ARC
  5
3A9
  8
0
  6
CONTINUOUS
 62
     7
 10
754.2484669316
 20
401.3238028311
 30
0.0
 40
22.50000106112839
 50
90.0000051686
 51
179.9999995746
  0
LINE
  5
3AA
  8
0
  6
CONTINUOUS
 62
     7
 10
788.5379404323
 20
423.8238038923
 30
0.0
 11
754.2484649019
 21
423.8238038923
 31
0.0
  0
LINE
  5
3AB
  8
0
  6
CONTINUOUS
 62
     7
 10
771.3932026671
 20
422.0632391478
 30
0.0
 11
757.6432027416
 21
422.0632391478
 31
0.0
  0
POLYLINE
  5
3AC
  8
0
  6
CONTINUOUS
 62
     7
 66
     1
 10
0.0
 20
0.0
 30
0.0
  0
VERTEX
  5
98C
  8
0
  6
CONTINUOUS
 62
     7
 10
757.6432027416
 20
422.0632391478
 30
0.0
  0
VERTEX
  5
98D
  8
0
  6
CONTINUOUS
 62
     7
 10
754.776644011
 20
421.920242017
 30
0.0
  0
VERTEX
  5
98E
  8
0
  6
CONTINUOUS
 62
     7
 10
751.9378517316
 20
421.4900883342
 30
0.0
  0
VERTEX
  5
98F
  8
0
  6
CONTINUOUS
 62
     7
 10
749.1725370781
 20
420.7760451789
 30
0.0
  0
VERTEX
  5
990
  8
0
  6
CONTINUOUS
 62
     7
 10
747.1169014023
 20
420.0371021832
 30
0.0
  0
VERTEX
  5
991
  8
0
  6
CONTINUOUS
 62
     7
 10
745.1540105538
 20
419.1419689412
 30
0.0
  0
VERTEX
  5
992
  8
0
  6
CONTINUOUS
 62
     7
 10
743.2570275412
 20
418.0721903647
 30
0.0
  0
VERTEX
  5
993
  8
0
  6
CONTINUOUS
 62
     7
 10
741.4913367973
 20
416.8561401273
 30
0.0
  0
VERTEX
  5
994
  8
0
  6
CONTINUOUS
 62
     7
 10
739.8108583437
 20
415.4491277839
 30
0.0
  0
VERTEX
  5
995
  8
0
  6
CONTINUOUS
 62
     7
 10
738.3076068507
 20
413.9111789371
 30
0.0
  0
VERTEX
  5
996
  8
0
  6
CONTINUOUS
 62
     7
 10
736.9481813656
 20
412.192164218
 30
0.0
  0
VERTEX
  5
997
  8
0
  6
CONTINUOUS
 62
     7
 10
735.8094085501
 20
410.366891181
 30
0.0
  0
VERTEX
  5
998
  8
0
  6
CONTINUOUS
 62
     7
 10
734.8804701613
 20
408.4033502693
 30
0.0
  0
VERTEX
  5
999
  8
0
  6
CONTINUOUS
 62
     7
 10
734.2064161347
 20
406.3715918417
 30
0.0
  0
VERTEX
  5
99A
  8
0
  6
CONTINUOUS
 62
     7
 10
733.7840054677
 20
404.2302037085
 30
0.0
  0
VERTEX
  5
99B
  8
0
  6
CONTINUOUS
 62
     7
 10
733.6432043956
 20
402.0632395948
 30
0.0
  0
SEQEND
  5
99C
  8
0
  6
CONTINUOUS
 62
     7
  0
LINE
  5
3AD
  8
0
  6
CONTINUOUS
 62
     7
 10
733.6432043956
 20
402.0632395948
 30
0.0
 11
733.6432043956
 21
391.0632396544
 31
0.0
  0
LINE
  5
3AE
  8
0
  6
CONTINUOUS
 62
     7
 10
733.6432043956
 20
391.0632396544
 30
0.0
 11
733.6432043956
 21
361.9670181031
 31
0.0
  0
ARC
  5
3AF
  8
0
  6
CONTINUOUS
 62
     7
 10
741.0145884287
 20
361.9540835345
 30
0.0
 40
7.371395381178304
 50
179.8994631902
 51
217.4859296383
  0
POLYLINE
  5
3B0
  8
0
  6
CONTINUOUS
 62
     7
 66
     1
 10
0.0
 20
0.0
 30
0.0
  0
VERTEX
  5
99D
  8
0
  6
CONTINUOUS
 62
     7
 10
735.1653654622
 20
357.468098631
 30
0.0
  0
VERTEX
  5
99E
  8
0
  6
CONTINUOUS
 62
     7
 10
735.8211655663
 20
356.7230703737
 30
0.0
  0
VERTEX
  5
99F
  8
0
  6
CONTINUOUS
 62
     7
 10
736.5724448608
 20
356.0727315451
 30
0.0
  0
SEQEND
  5
9A0
  8
0
  6
CONTINUOUS
 62
     7
  0
ARC
  5
3B1
  8
0
  6
CONTINUOUS
 62
     7
 10
741.0898947874
 20
362.0775422846
 30
0.0
 40
7.514326706785995
 50
233.0456683213
 51
270.1466478997
  0
LINE
  5
3B2
  8
0
  6
CONTINUOUS
 62
     7
 10
741.1091276006
 20
354.5632401909
 30
0.0
 11
762.8864417346
 21
354.5632401909
 31
0.0
  0
LINE
  5
3B3
  8
0
  6
CONTINUOUS
 62
     7
 10
762.8864417346
 20
354.5632401909
 30
0.0
 11
763.100707394
 21
354.5632401909
 31
0.0
  0
LINE
  5
3B4
  8
0
  6
CONTINUOUS
 62
     7
 10
763.100707394
 20
354.5632401909
 30
0.0
 11
779.6856979401
 21
354.5632401909
 31
0.0
  0
LINE
  5
3B5
  8
0
  6
CONTINUOUS
 62
     7
 10
779.6856979401
 20
354.5632401909
 30
0.0
 11
779.8999635996
 21
354.5632401909
 31
0.0
  0
LINE
  5
3B6
  8
0
  6
CONTINUOUS
 62
     7
 10
779.8999635996
 20
354.5632401909
 30
0.0
 11
801.6772777335
 21
354.5632401909
 31
0.0
  0
ARC
  5
3B7
  8
0
  6
CONTINUOUS
 62
     7
 10
801.6965390299
 20
362.0774566802
 30
0.0
 40
7.514241175711684
 50
269.8531332476
 51
306.9545505314
  0
POLYLINE
  5
3B8
  8
0
  6
CONTINUOUS
 62
     7
 66
     1
 10
0.0
 20
0.0
 30
0.0
  0
VERTEX
  5
9A1
  8
0
  6
CONTINUOUS
 62
     7
 10
806.2139604734
 20
356.0727315451
 30
0.0
  0
VERTEX
  5
9A2
  8
0
  6
CONTINUOUS
 62
     7
 10
806.9712039576
 20
356.7289786841
 30
0.0
  0
VERTEX
  5
9A3
  8
0
  6
CONTINUOUS
 62
     7
 10
807.6312397169
 20
357.4814202691
 30
0.0
  0
SEQEND
  5
9A4
  8
0
  6
CONTINUOUS
 62
     7
  0
ARC
  5
3B9
  8
0
  6
CONTINUOUS
 62
     7
 10
801.7714360869
 20
361.9542027008
 30
0.0
 40
7.371775991106709
 50
322.645541058
 51
0.0996054189
  0
LINE
  5
3BA
  8
0
  6
CONTINUOUS
 62
     7
 10
809.1432009385
 20
361.9670181031
 30
0.0
 11
809.1432009385
 21
391.0632396544
 31
0.0
  0
LINE
  5
3BB
  8
0
  6
CONTINUOUS
 62
     7
 10
809.1432009385
 20
391.0632396544
 30
0.0
 11
809.1432009385
 21
402.0632395948
 31
0.0
  0
POLYLINE
  5
3BC
  8
0
  6
CONTINUOUS
 62
     7
 66
     1
 10
0.0
 20
0.0
 30
0.0
  0
VERTEX
  5
9A5
  8
0
  6
CONTINUOUS
 62
     7
 10
809.1432009385
 20
402.0632395948
 30
0.0
  0
VERTEX
  5
9A6
  8
0
  6
CONTINUOUS
 62
     7
 10
809.0054508792
 20
404.2066123764
 30
0.0
  0
VERTEX
  5
9A7
  8
0
  6
CONTINUOUS
 62
     7
 10
808.5921932505
 20
406.3252389858
 30
0.0
  0
VERTEX
  5
9A8
  8
0
  6
CONTINUOUS
 62
     7
 10
807.9203185187
 20
408.3674161191
 30
0.0
  0
VERTEX
  5
9A9
  8
0
  6
CONTINUOUS
 62
     7
 10
806.9911156343
 20
410.3410842325
 30
0.0
  0
VERTEX
  5
9AA
  8
0
  6
CONTINUOUS
 62
     7
 10
805.8596965419
 20
412.1616391893
 30
0.0
  0
VERTEX
  5
9AB
  8
0
  6
CONTINUOUS
 62
     7
 10
804.5088839279
 20
413.8770161624
 30
0.0
  0
VERTEX
  5
9AC
  8
0
  6
CONTINUOUS
 62
     7
 10
803.0137721942
 20
415.4136835094
 30
0.0
  0
VERTEX
  5
9AD
  8
0
  6
CONTINUOUS
 62
     7
 10
801.3419624911
 20
416.8204984124
 30
0.0
  0
VERTEX
  5
9AE
  8
0
  6
CONTINUOUS
 62
     7
 10
798.9526413874
 20
418.4210470374
 30
0.0
  0
VERTEX
  5
9AF
  8
0
  6
CONTINUOUS
 62
     7
 10
796.3755637901
 20
419.7378309871
 30
0.0
  0
VERTEX
  5
9B0
  8
0
  6
CONTINUOUS
 62
     7
 10
793.6647221939
 20
420.7600301559
 30
0.0
  0
VERTEX
  5
9B1
  8
0
  6
CONTINUOUS
 62
     7
 10
790.8819061266
 20
421.4832338001
 30
0.0
  0
VERTEX
  5
9B2
  8
0
  6
CONTINUOUS
 62
     7
 10
788.025446658
 20
421.9186215158
 30
0.0
  0
VERTEX
  5
9B3
  8
0
  6
CONTINUOUS
 62
     7
 10
785.1432025926
 20
422.0632391478
 30
0.0
  0
SEQEND
  5
9B4
  8
0
  6
CONTINUOUS
 62
     7
  0
LINE
  5
3BD
  8
0
  6
CONTINUOUS
 62
     7
 10
785.1432025926
 20
422.0632391478
 30
0.0
 11
771.3932026671
 21
422.0632391478
 31
0.0
  0
INSERT
  5
3C3
  8
0
  6
CONTINUOUS
 62
     7
  2
SW_NOTE_6
 10
742.4346779136
 20
347.0693534778
 30
0.0
  0
POLYLINE
  5
3C4
  8
0
  6
CONTINUOUS
 62
     7
 66
     1
 10
0.0
 20
0.0
 30
0.0
  0
VERTEX
  5
9B5
  8
0
  6
CONTINUOUS
 62
     7
 10
855.8020991111
 20
396.9776851552
 30
0.0
  0
VERTEX
  5
9B6
  8
0
  6
CONTINUOUS
 62
     7
 10
855.1011084417
 20
398.7269920724
 30
0.0
  0
VERTEX
  5
9B7
  8
0
  6
CONTINUOUS
 62
     7
 10
854.6678478667
 20
400.5243976097
 30
0.0
  0
VERTEX
  5
9B8
  8
0
  6
CONTINUOUS
 62
     7
 10
854.4937939221
 20
402.6266916151
 30
0.0
  0
VERTEX
  5
9B9
  8
0
  6
CONTINUOUS
 62
     7
 10
854.648718501
 20
404.668324856
 30
0.0
  0
VERTEX
  5
9BA
  8
0
  6
CONTINUOUS
 62
     7
 10
855.1482789987
 20
406.7348728384
 30
0.0
  0
VERTEX
  5
9BB
  8
0
  6
CONTINUOUS
 62
     7
 10
855.8972532699
 20
408.5715638901
 30
0.0
  0
VERTEX
  5
9BC
  8
0
  6
CONTINUOUS
 62
     7
 10
856.4029139304
 20
409.5105307604
 30
0.0
  0
VERTEX
  5
9BD
  8
0
  6
CONTINUOUS
 62
     7
 10
856.8714269275
 20
410.2990722711
 30
0.0
  0
VERTEX
  5
9BE
  8
0
  6
CONTINUOUS
 62
     7
 10
857.1068773815
 20
410.7065184469
 30
0.0
  0
VERTEX
  5
9BF
  8
0
  6
CONTINUOUS
 62
     7
 10
857.242572012
 20
411.0115712936
 30
0.0
  0
VERTEX
  5
9C0
  8
0
  6
CONTINUOUS
 62
     7
 10
857.2609674955
 20
411.1251796092
 30
0.0
  0
VERTEX
  5
9C1
  8
0
  6
CONTINUOUS
 62
     7
 10
857.2609674955
 20
411.1251851971
 30
0.0
  0
SEQEND
  5
9C2
  8
0
  6
CONTINUOUS
 62
     7
  0
POLYLINE
  5
3C5
  8
0
  6
CONTINUOUS
 62
     7
 66
     1
 10
0.0
 20
0.0
 30
0.0
  0
VERTEX
  5
9C3
  8
0
  6
CONTINUOUS
 62
     7
 10
857.2609674955
 20
411.1251851971
 30
0.0
  0
VERTEX
  5
9C4
  8
0
  6
CONTINUOUS
 62
     7
 10
857.2609684268
 20
411.1251907851
 30
0.0
  0
VERTEX
  5
9C5
  8
0
  6
CONTINUOUS
 62
     7
 10
857.2797634477
 20
411.2398887481
 30
0.0
  0
VERTEX
  5
9C6
  8
0
  6
CONTINUOUS
 62
     7
 10
857.9321474606
 20
413.7221875097
 30
0.0
  0
VERTEX
  5
9C7
  8
0
  6
CONTINUOUS
 62
     7
 10
858.8857230568
 20
415.8068599607
 30
0.0
  0
VERTEX
  5
9C8
  8
0
  6
CONTINUOUS
 62
     7
 10
859.5240981156
 20
416.8368915523
 30
0.0
  0
VERTEX
  5
9C9
  8
0
  6
CONTINUOUS
 62
     7
 10
860.292376841
 20
417.8520033563
 30
0.0
  0
VERTEX
  5
9CA
  8
0
  6
CONTINUOUS
 62
     7
 10
860.9709445225
 20
418.6014796103
 30
0.0
  0
VERTEX
  5
9CB
  8
0
  6
CONTINUOUS
 62
     7
 10
861.7618837232
 20
419.3383010532
 30
0.0
  0
VERTEX
  5
9CC
  8
0
  6
CONTINUOUS
 62
     7
 10
863.0452359864
 20
420.2806188221
 30
0.0
  0
VERTEX
  5
9CD
  8
0
  6
CONTINUOUS
 62
     7
 10
864.1377094971
 20
420.8750000651
 30
0.0
  0
VERTEX
  5
9CE
  8
0
  6
CONTINUOUS
 62
     7
 10
865.0651722053
 20
421.2468920703
 30
0.0
  0
VERTEX
  5
9CF
  8
0
  6
CONTINUOUS
 62
     7
 10
865.6442920981
 20
421.4211257602
 30
0.0
  0
VERTEX
  5
9D0
  8
0
  6
CONTINUOUS
 62
     7
 10
866.3790507778
 20
421.5803726072
 30
0.0
  0
VERTEX
  5
9D1
  8
0
  6
CONTINUOUS
 62
     7
 10
867.0217194665
 20
421.664186051
 30
0.0
  0
VERTEX
  5
9D2
  8
0
  6
CONTINUOUS
 62
     7
 10
867.3228116311
 20
421.68585979
 30
0.0
  0
VERTEX
  5
9D3
  8
0
  6
CONTINUOUS
 62
     7
 10
867.8110977669
 20
421.6972666289
 30
0.0
  0
VERTEX
  5
9D4
  8
0
  6
CONTINUOUS
 62
     7
 10
868.2936266484
 20
421.6797223742
 30
0.0
  0
VERTEX
  5
9D5
  8
0
  6
CONTINUOUS
 62
     7
 10
868.894239429
 20
421.6177391316
 30
0.0
  0
VERTEX
  5
9D6
  8
0
  6
CONTINUOUS
 62
     7
 10
869.3611801207
 20
421.5385506357
 30
0.0
  0
VERTEX
  5
9D7
  8
0
  6
CONTINUOUS
 62
     7
 10
869.770374971
 20
421.446589982
 30
0.0
  0
VERTEX
  5
9D8
  8
0
  6
CONTINUOUS
 62
     7
 10
870.4919020017
 20
421.2332183923
 30
0.0
  0
VERTEX
  5
9D9
  8
0
  6
CONTINUOUS
 62
     7
 10
871.0815667944
 20
421.0057670678
 30
0.0
  0
VERTEX
  5
9DA
  8
0
  6
CONTINUOUS
 62
     7
 10
872.068002245
 20
420.5191268082
 30
0.0
  0
VERTEX
  5
9DB
  8
0
  6
CONTINUOUS
 62
     7
 10
873.0888030329
 20
419.8671991433
 30
0.0
  0
VERTEX
  5
9DC
  8
0
  6
CONTINUOUS
 62
     7
 10
873.9225686365
 20
419.1966301258
 30
0.0
  0
VERTEX
  5
9DD
  8
0
  6
CONTINUOUS
 62
     7
 10
874.6291770437
 20
418.5125681068
 30
0.0
  0
VERTEX
  5
9DE
  8
0
  6
CONTINUOUS
 62
     7
 10
875.5397097045
 20
417.4567966218
 30
0.0
  0
VERTEX
  5
9DF
  8
0
  6
CONTINUOUS
 62
     7
 10
876.2872115547
 20
416.381508341
 30
0.0
  0
VERTEX
  5
9E0
  8
0
  6
CONTINUOUS
 62
     7
 10
877.3912413815
 20
414.2182676549
 30
0.0
  0
VERTEX
  5
9E1
  8
0
  6
CONTINUOUS
 62
     7
 10
878.0774985278
 20
412.0322579945
 30
0.0
  0
VERTEX
  5
9E2
  8
0
  6
CONTINUOUS
 62
     7
 10
878.2527501533
 20
411.1251926477
 30
0.0
  0
VERTEX
  5
9E3
  8
0
  6
CONTINUOUS
 62
     7
 10
878.2527510846
 20
411.1251851971
 30
0.0
  0
SEQEND
  5
9E4
  8
0
  6
CONTINUOUS
 62
     7
  0
POLYLINE
  5
3C6
  8
0
  6
CONTINUOUS
 62
     7
 66
     1
 10
0.0
 20
0.0
 30
0.0
  0
VERTEX
  5
9E5
  8
0
  6
CONTINUOUS
 62
     7
 10
878.2527510846
 20
411.1251851971
 30
0.0
  0
VERTEX
  5
9E6
  8
0
  6
CONTINUOUS
 62
     7
 10
878.2527510846
 20
411.1251796092
 30
0.0
  0
VERTEX
  5
9E7
  8
0
  6
CONTINUOUS
 62
     7
 10
878.3438493335
 20
410.8320085759
 30
0.0
  0
VERTEX
  5
9E8
  8
0
  6
CONTINUOUS
 62
     7
 10
878.5855200911
 20
410.393866008
 30
0.0
  0
VERTEX
  5
9E9
  8
0
  6
CONTINUOUS
 62
     7
 10
879.0377153853
 20
409.6294979061
 30
0.0
  0
VERTEX
  5
9EA
  8
0
  6
CONTINUOUS
 62
     7
 10
879.5450347313
 20
408.7033963258
 30
0.0
  0
VERTEX
  5
9EB
  8
0
  6
CONTINUOUS
 62
     7
 10
880.0292051235
 20
407.6586535628
 30
0.0
  0
VERTEX
  5
9EC
  8
0
  6
CONTINUOUS
 62
     7
 10
880.6244999939
 20
405.8431202973
 30
0.0
  0
VERTEX
  5
9ED
  8
0
  6
CONTINUOUS
 62
     7
 10
880.9650148103
 20
403.8636435251
 30
0.0
  0
VERTEX
  5
9EE
  8
0
  6
CONTINUOUS
 62
     7
 10
881.0103599751
 20
402.1794472317
 30
0.0
  0
VERTEX
  5
9EF
  8
0
  6
CONTINUOUS
 62
     7
 10
880.8323730552
 20
400.457104897
 30
0.0
  0
VERTEX
  5
9F0
  8
0
  6
CONTINUOUS
 62
     7
 10
880.4197068164
 20
398.7466914075
 30
0.0
  0
VERTEX
  5
9F1
  8
0
  6
CONTINUOUS
 62
     7
 10
879.7116204003
 20
396.9776865522
 30
0.0
  0
SEQEND
  5
9F2
  8
0
  6
CONTINUOUS
 62
     7
  0
POLYLINE
  5
3C7
  8
0
  6
CONTINUOUS
 62
     7
 66
     1
 10
0.0
 20
0.0
 30
0.0
  0
VERTEX
  5
9F3
  8
0
  6
CONTINUOUS
 62
     7
 10
879.7116204003
 20
396.9776865522
 30
0.0
  0
VERTEX
  5
9F4
  8
0
  6
CONTINUOUS
 62
     7
 10
879.3574058288
 20
397.1783656123
 30
0.0
  0
VERTEX
  5
9F5
  8
0
  6
CONTINUOUS
 62
     7
 10
879.0299900645
 20
397.3887490536
 30
0.0
  0
VERTEX
  5
9F6
  8
0
  6
CONTINUOUS
 62
     7
 10
878.7384097302
 20
397.6030310112
 30
0.0
  0
VERTEX
  5
9F7
  8
0
  6
CONTINUOUS
 62
     7
 10
878.490711453
 20
397.8152971211
 30
0.0
  0
VERTEX
  5
9F8
  8
0
  6
CONTINUOUS
 62
     7
 10
878.2937330032
 20
398.0196888986
 30
0.0
  0
VERTEX
  5
9F9
  8
0
  6
CONTINUOUS
 62
     7
 10
878.1529105106
 20
398.2105653229
 30
0.0
  0
VERTEX
  5
9FA
  8
0
  6
CONTINUOUS
 62
     7
 10
878.0721294531
 20
398.3826588335
 30
0.0
  0
VERTEX
  5
9FB
  8
0
  6
CONTINUOUS
 62
     7
 10
878.0536203483
 20
398.5312192197
 30
0.0
  0
SEQEND
  5
9FC
  8
0
  6
CONTINUOUS
 62
     7
  0
POLYLINE
  5
3C8
  8
0
  6
CONTINUOUS
 62
     7
 66
     1
 10
0.0
 20
0.0
 30
0.0
  0
VERTEX
  5
9FD
  8
0
  6
CONTINUOUS
 62
     7
 10
878.0536203483
 20
398.5312192197
 30
0.0
  0
VERTEX
  5
9FE
  8
0
  6
CONTINUOUS
 62
     7
 10
878.6946133548
 20
400.1080554406
 30
0.0
  0
VERTEX
  5
9FF
  8
0
  6
CONTINUOUS
 62
     7
 10
879.0863695392
 20
401.6627895142
 30
0.0
  0
VERTEX
  5
A00
  8
0
  6
CONTINUOUS
 62
     7
 10
879.2688240135
 20
403.2166863288
 30
0.0
  0
VERTEX
  5
A01
  8
0
  6
CONTINUOUS
 62
     7
 10
879.2577701458
 20
404.7269730325
 30
0.0
  0
VERTEX
  5
A02
  8
0
  6
CONTINUOUS
 62
     7
 10
878.9860549221
 20
406.5903054978
 30
0.0
  0
VERTEX
  5
A03
  8
0
  6
CONTINUOUS
 62
     7
 10
878.4950467596
 20
408.2818927671
 30
0.0
  0
VERTEX
  5
A04
  8
0
  6
CONTINUOUS
 62
     7
 10
878.0611901382
 20
409.3432056214
 30
0.0
  0
VERTEX
  5
A05
  8
0
  6
CONTINUOUS
 62
     7
 10
877.6144440124
 20
410.267656898
 30
0.0
  0
VERTEX
  5
A06
  8
0
  6
CONTINUOUS
 62
     7
 10
877.2219138989
 20
411.0215029175
 30
0.0
  0
VERTEX
  5
A07
  8
0
  6
CONTINUOUS
 62
     7
 10
876.9450372854
 20
411.6276318635
 30
0.0
  0
VERTEX
  5
A08
  8
0
  6
CONTINUOUS
 62
     7
 10
876.8288156787
 20
412.0378254409
 30
0.0
  0
VERTEX
  5
A09
  8
0
  6
CONTINUOUS
 62
     7
 10
876.7932503322
 20
412.3462850655
 30
0.0
  0
VERTEX
  5
A0A
  8
0
  6
CONTINUOUS
 62
     7
 10
876.7583406368
 20
412.6472140158
 30
0.0
  0
VERTEX
  5
A0B
  8
0
  6
CONTINUOUS
 62
     7
 10
876.2114037597
 20
414.6493023689
 30
0.0
  0
VERTEX
  5
A0C
  8
0
  6
CONTINUOUS
 62
     7
 10
875.2706562007
 20
416.657038262
 30
0.0
  0
VERTEX
  5
A0D
  8
0
  6
CONTINUOUS
 62
     7
 10
874.6498267935
 20
417.6564274783
 30
0.0
  0
VERTEX
  5
A0E
  8
0
  6
CONTINUOUS
 62
     7
 10
873.8874773333
 20
418.6442813332
 30
0.0
  0
VERTEX
  5
A0F
  8
0
  6
CONTINUOUS
 62
     7
 10
872.8908364499
 20
419.6121247913
 30
0.0
  0
VERTEX
  5
A10
  8
0
  6
CONTINUOUS
 62
     7
 10
871.5671323077
 20
420.5514809544
 30
0.0
  0
VERTEX
  5
A11
  8
0
  6
CONTINUOUS
 62
     7
 10
871.0343121854
 20
420.857783636
 30
0.0
  0
VERTEX
  5
A12
  8
0
  6
CONTINUOUS
 62
     7
 10
870.3870551033
 20
421.1556876506
 30
0.0
  0
VERTEX
  5
A13
  8
0
  6
CONTINUOUS
 62
     7
 10
869.5361885546
 20
421.434648564
 30
0.0
  0
VERTEX
  5
A14
  8
0
  6
CONTINUOUS
 62
     7
 10
868.7618858019
 20
421.5980546976
 30
0.0
  0
VERTEX
  5
A15
  8
0
  6
CONTINUOUS
 62
     7
 10
868.2311511145
 20
421.6572663243
 30
0.0
  0
VERTEX
  5
A16
  8
0
  6
CONTINUOUS
 62
     7
 10
867.8047843748
 20
421.6740319933
 30
0.0
  0
VERTEX
  5
A17
  8
0
  6
CONTINUOUS
 62
     7
 10
867.3733325338
 20
421.6631299312
 30
0.0
  0
VERTEX
  5
A18
  8
0
  6
CONTINUOUS
 62
     7
 10
867.1072791401
 20
421.6424247677
 30
0.0
  0
VERTEX
  5
A19
  8
0
  6
CONTINUOUS
 62
     7
 10
866.5393629415
 20
421.5623664166
 30
0.0
  0
VERTEX
  5
A1A
  8
0
  6
CONTINUOUS
 62
     7
 10
865.8882530942
 20
421.4113599117
 30
0.0
  0
VERTEX
  5
A1B
  8
0
  6
CONTINUOUS
 62
     7
 10
865.3780854145
 20
421.2441577072
 30
0.0
  0
VERTEX
  5
A1C
  8
0
  6
CONTINUOUS
 62
     7
 10
864.558214678
 20
420.889897501
 30
0.0
  0
VERTEX
  5
A1D
  8
0
  6
CONTINUOUS
 62
     7
 10
863.592735848
 20
420.3249870296
 30
0.0
  0
VERTEX
  5
A1E
  8
0
  6
CONTINUOUS
 62
     7
 10
862.4602196576
 20
419.4325639362
 30
0.0
  0
VERTEX
  5
A1F
  8
0
  6
CONTINUOUS
 62
     7
 10
861.169564894
 20
418.0327022876
 30
0.0
  0
VERTEX
  5
A20
  8
0
  6
CONTINUOUS
 62
     7
 10
859.9467201927
 20
416.1233289595
 30
0.0
  0
VERTEX
  5
A21
  8
0
  6
CONTINUOUS
 62
     7
 10
859.1477059597
 20
414.1939675863
 30
0.0
  0
VERTEX
  5
A22
  8
0
  6
CONTINUOUS
 62
     7
 10
858.6432439113
 20
411.9276667441
 30
0.0
  0
VERTEX
  5
A23
  8
0
  6
CONTINUOUS
 62
     7
 10
858.5293561989
 20
411.531843474
 30
0.0
  0
VERTEX
  5
A24
  8
0
  6
CONTINUOUS
 62
     7
 10
858.2394094044
 20
410.9215608294
 30
0.0
  0
VERTEX
  5
A25
  8
0
  6
CONTINUOUS
 62
     7
 10
857.8271762306
 20
410.129647931
 30
0.0
  0
VERTEX
  5
A26
  8
0
  6
CONTINUOUS
 62
     7
 10
857.3736742908
 20
409.1710227038
 30
0.0
  0
VERTEX
  5
A27
  8
0
  6
CONTINUOUS
 62
     7
 10
856.7464536825
 20
407.4403627272
 30
0.0
  0
VERTEX
  5
A28
  8
0
  6
CONTINUOUS
 62
     7
 10
856.3295359561
 20
405.4672161545
 30
0.0
  0
VERTEX
  5
A29
  8
0
  6
CONTINUOUS
 62
     7
 10
856.2294700021
 20
403.6188714634
 30
0.0
  0
VERTEX
  5
A2A
  8
0
  6
CONTINUOUS
 62
     7
 10
856.4187166119
 20
401.7002305443
 30
0.0
  0
VERTEX
  5
A2B
  8
0
  6
CONTINUOUS
 62
     7
 10
856.8221068779
 20
400.1008339654
 30
0.0
  0
VERTEX
  5
A2C
  8
0
  6
CONTINUOUS
 62
     7
 10
857.4600982317
 20
398.5312178227
 30
0.0
  0
SEQEND
  5
A2D
  8
0
  6
CONTINUOUS
 62
     7
  0
POLYLINE
  5
3C9
  8
0
  6
CONTINUOUS
 62
     7
 66
     1
 10
0.0
 20
0.0
 30
0.0
  0
VERTEX
  5
A2E
  8
0
  6
CONTINUOUS
 62
     7
 10
857.4600982317
 20
398.5312178227
 30
0.0
  0
VERTEX
  5
A2F
  8
0
  6
CONTINUOUS
 62
     7
 10
857.4415891269
 20
398.3826574366
 30
0.0
  0
VERTEX
  5
A30
  8
0
  6
CONTINUOUS
 62
     7
 10
857.3608090007
 20
398.2105643916
 30
0.0
  0
VERTEX
  5
A31
  8
0
  6
CONTINUOUS
 62
     7
 10
857.2199855769
 20
398.0196875016
 30
0.0
  0
VERTEX
  5
A32
  8
0
  6
CONTINUOUS
 62
     7
 10
857.0230071271
 20
397.8152957241
 30
0.0
  0
VERTEX
  5
A33
  8
0
  6
CONTINUOUS
 62
     7
 10
856.7753097811
 20
397.6030296142
 30
0.0
  0
VERTEX
  5
A34
  8
0
  6
CONTINUOUS
 62
     7
 10
856.4837294468
 20
397.3887476566
 30
0.0
  0
VERTEX
  5
A35
  8
0
  6
CONTINUOUS
 62
     7
 10
856.1563136825
 20
397.1783642153
 30
0.0
  0
VERTEX
  5
A36
  8
0
  6
CONTINUOUS
 62
     7
 10
855.8020991111
 20
396.9776851552
 30
0.0
  0
SEQEND
  5
A37
  8
0
  6
CONTINUOUS
 62
     7
  0
ARC
  5
3CA
  8
0
  6
CONTINUOUS
 62
     7
 10
867.75685929
 20
403.0632396544
 30
0.0
 40
11.25000000000009
 50
336.2437664237
 51
203.7562396615
  0
LINE
  5
3CB
  8
0
  6
CONTINUOUS
 62
     7
 10
896.5068598116
 20
391.0632396544
 30
0.0
 11
905.5068575615
 21
391.0632396544
 31
0.0
  0
LINE
  5
3CC
  8
0
  6
CONTINUOUS
 62
     7
 10
881.2568596402
 20
391.0632396544
 30
0.0
 11
896.5068598116
 21
391.0632396544
 31
0.0
  0
LINE
  5
3CD
  8
0
  6
CONTINUOUS
 62
     7
 10
854.2568589398
 20
391.0632396544
 30
0.0
 11
881.2568596402
 21
391.0632396544
 31
0.0
  0
LINE
  5
3CE
  8
0
  6
CONTINUOUS
 62
     7
 10
839.0068587685
 20
391.0632396544
 30
0.0
 11
854.2568589398
 21
391.0632396544
 31
0.0
  0
LINE
  5
3CF
  8
0
  6
CONTINUOUS
 62
     7
 10
830.0068610185
 20
391.0632396544
 30
0.0
 11
839.0068587685
 21
391.0632396544
 31
0.0
  0
LINE
  5
3D0
  8
0
  6
CONTINUOUS
 62
     7
 10
830.0068610185
 20
402.0632395948
 30
0.0
 11
830.0068610185
 21
391.0632396544
 31
0.0
  0
POLYLINE
  5
3D1
  8
0
  6
CONTINUOUS
 62
     7
 66
     1
 10
0.0
 20
0.0
 30
0.0
  0
VERTEX
  5
A38
  8
0
  6
CONTINUOUS
 62
     7
 10
854.0068593645
 20
422.0632391478
 30
0.0
  0
VERTEX
  5
A39
  8
0
  6
CONTINUOUS
 62
     7
 10
852.1238406026
 20
422.0015855933
 30
0.0
  0
VERTEX
  5
A3A
  8
0
  6
CONTINUOUS
 62
     7
 10
850.252431708
 20
421.8170067723
 30
0.0
  0
VERTEX
  5
A3B
  8
0
  6
CONTINUOUS
 62
     7
 10
848.4041699046
 20
421.5106388981
 30
0.0
  0
VERTEX
  5
A3C
  8
0
  6
CONTINUOUS
 62
     7
 10
846.5904508555
 20
421.0843706931
 30
0.0
  0
VERTEX
  5
A3D
  8
0
  6
CONTINUOUS
 62
     7
 10
844.8224560195
 20
420.5408303495
 30
0.0
  0
VERTEX
  5
A3E
  8
0
  6
CONTINUOUS
 62
     7
 10
843.1110874587
 20
419.8833706285
 30
0.0
  0
VERTEX
  5
A3F
  8
0
  6
CONTINUOUS
 62
     7
 10
841.4668933326
 20
419.1160427834
 30
0.0
  0
VERTEX
  5
A40
  8
0
  6
CONTINUOUS
 62
     7
 10
839.9000138813
 20
418.2435797955
 30
0.0
  0
VERTEX
  5
A41
  8
0
  6
CONTINUOUS
 62
     7
 10
838.42010692
 20
417.2713591213
 30
0.0
  0
VERTEX
  5
A42
  8
0
  6
CONTINUOUS
 62
     7
 10
837.0362956846
 20
416.205374753
 30
0.0
  0
VERTEX
  5
A43
  8
0
  6
CONTINUOUS
 62
     7
 10
835.7571148151
 20
415.0521999652
 30
0.0
  0
VERTEX
  5
A44
  8
0
  6
CONTINUOUS
 62
     7
 10
834.5904507512
 20
413.8189444746
 30
0.0
  0
VERTEX
  5
A45
  8
0
  6
CONTINUOUS
 62
     7
 10
833.5434951657
 20
412.5132115985
 30
0.0
  0
VERTEX
  5
A46
  8
0
  6
CONTINUOUS
 62
     7
 10
832.6227039868
 20
411.1430498267
 30
0.0
  0
VERTEX
  5
A47
  8
0
  6
CONTINUOUS
 62
     7
 10
831.8337508315
 20
409.7169081177
 30
0.0
  0
VERTEX
  5
A48
  8
0
  6
CONTINUOUS
 62
     7
 10
831.1815046543
 20
408.243580019
 30
0.0
  0
VERTEX
  5
A49
  8
0
  6
CONTINUOUS
 62
     7
 10
830.6699813181
 20
406.7321477885
 30
0.0
  0
VERTEX
  5
A4A
  8
0
  6
CONTINUOUS
 62
     7
 10
830.3023398692
 20
405.1919293086
 30
0.0
  0
VERTEX
  5
A4B
  8
0
  6
CONTINUOUS
 62
     7
 10
830.0808415586
 20
403.6324212755
 30
0.0
  0
VERTEX
  5
A4C
  8
0
  6
CONTINUOUS
 62
     7
 10
830.0068610185
 20
402.0632395948
 30
0.0
  0
SEQEND
  5
A4D
  8
0
  6
CONTINUOUS
 62
     7
  0
LINE
  5
3D2
  8
0
  6
CONTINUOUS
 62
     7
 10
867.75685929
 20
422.0632391478
 30
0.0
 11
854.0068593645
 21
422.0632391478
 31
0.0
  0
LINE
  5
3D3
  8
0
  6
CONTINUOUS
 62
     7
 10
881.5068592155
 20
422.0632391478
 30
0.0
 11
867.75685929
 21
422.0632391478
 31
0.0
  0
POLYLINE
  5
3D4
  8
0
  6
CONTINUOUS
 62
     7
 66
     1
 10
0.0
 20
0.0
 30
0.0
  0
VERTEX
  5
A4E
  8
0
  6
CONTINUOUS
 62
     7
 10
905.5068575615
 20
402.0632395948
 30
0.0
  0
VERTEX
  5
A4F
  8
0
  6
CONTINUOUS
 62
     7
 10
905.4328770214
 20
403.6324212755
 30
0.0
  0
VERTEX
  5
A50
  8
0
  6
CONTINUOUS
 62
     7
 10
905.2113787109
 20
405.1919293086
 30
0.0
  0
VERTEX
  5
A51
  8
0
  6
CONTINUOUS
 62
     7
 10
904.8437372619
 20
406.7321477885
 30
0.0
  0
VERTEX
  5
A52
  8
0
  6
CONTINUOUS
 62
     7
 10
904.3322139257
 20
408.243580019
 30
0.0
  0
VERTEX
  5
A53
  8
0
  6
CONTINUOUS
 62
     7
 10
903.6799677485
 20
409.7169081177
 30
0.0
  0
VERTEX
  5
A54
  8
0
  6
CONTINUOUS
 62
     7
 10
902.8910145933
 20
411.1430498267
 30
0.0
  0
VERTEX
  5
A55
  8
0
  6
CONTINUOUS
 62
     7
 10
901.9702234143
 20
412.5132115985
 30
0.0
  0
VERTEX
  5
A56
  8
0
  6
CONTINUOUS
 62
     7
 10
900.9232678288
 20
413.8189444746
 30
0.0
  0
VERTEX
  5
A57
  8
0
  6
CONTINUOUS
 62
     7
 10
899.7566037649
 20
415.0521999652
 30
0.0
  0
VERTEX
  5
A58
  8
0
  6
CONTINUOUS
 62
     7
 10
898.4774228954
 20
416.205374753
 30
0.0
  0
VERTEX
  5
A59
  8
0
  6
CONTINUOUS
 62
     7
 10
897.09361166
 20
417.2713591213
 30
0.0
  0
VERTEX
  5
A5A
  8
0
  6
CONTINUOUS
 62
     7
 10
895.6137046987
 20
418.2435797955
 30
0.0
  0
VERTEX
  5
A5B
  8
0
  6
CONTINUOUS
 62
     7
 10
894.0468252474
 20
419.1160427834
 30
0.0
  0
VERTEX
  5
A5C
  8
0
  6
CONTINUOUS
 62
     7
 10
892.4026311213
 20
419.8833706285
 30
0.0
  0
VERTEX
  5
A5D
  8
0
  6
CONTINUOUS
 62
     7
 10
890.6912625605
 20
420.5408303495
 30
0.0
  0
VERTEX
  5
A5E
  8
0
  6
CONTINUOUS
 62
     7
 10
888.9232677245
 20
421.0843706931
 30
0.0
  0
VERTEX
  5
A5F
  8
0
  6
CONTINUOUS
 62
     7
 10
887.1095486754
 20
421.5106388981
 30
0.0
  0
VERTEX
  5
A60
  8
0
  6
CONTINUOUS
 62
     7
 10
885.261286872
 20
421.8170067723
 30
0.0
  0
VERTEX
  5
A61
  8
0
  6
CONTINUOUS
 62
     7
 10
883.3898779774
 20
422.0015855933
 30
0.0
  0
VERTEX
  5
A62
  8
0
  6
CONTINUOUS
 62
     7
 10
881.5068592155
 20
422.0632391478
 30
0.0
  0
SEQEND
  5
A63
  8
0
  6
CONTINUOUS
 62
     7
  0
LINE
  5
3D5
  8
0
  6
CONTINUOUS
 62
     7
 10
905.5068575615
 20
391.0632396544
 30
0.0
 11
905.5068575615
 21
402.0632395948
 31
0.0
  0
POLYLINE
  5
3D6
  8
0
  6
CONTINUOUS
 62
     7
 66
     1
 10
0.0
 20
0.0
 30
0.0
  0
VERTEX
  5
A64
  8
0
  6
CONTINUOUS
 62
     7
 10
879.7116204003
 20
396.9776865522
 30
0.0
  0
VERTEX
  5
A65
  8
0
  6
CONTINUOUS
 62
     7
 10
879.1605251679
 20
396.0234636868
 30
0.0
  0
VERTEX
  5
A66
  8
0
  6
CONTINUOUS
 62
     7
 10
878.472069169
 20
395.1273302044
 30
0.0
  0
VERTEX
  5
A67
  8
0
  6
CONTINUOUS
 62
     7
 10
877.2659486929
 20
393.9703085887
 30
0.0
  0
VERTEX
  5
A68
  8
0
  6
CONTINUOUS
 62
     7
 10
875.8265524009
 20
392.9943875371
 30
0.0
  0
VERTEX
  5
A69
  8
0
  6
CONTINUOUS
 62
     7
 10
874.2626024248
 20
392.263742742
 30
0.0
  0
VERTEX
  5
A6A
  8
0
  6
CONTINUOUS
 62
     7
 10
872.5548134023
 20
391.7653784118
 30
0.0
  0
VERTEX
  5
A6B
  8
0
  6
CONTINUOUS
 62
     7
 10
870.6981117209
 20
391.5309963593
 30
0.0
  0
VERTEX
  5
A6C
  8
0
  6
CONTINUOUS
 62
     7
 10
868.8199037058
 20
391.5559521372
 30
0.0
  0
VERTEX
  5
A6D
  8
0
  6
CONTINUOUS
 62
     7
 10
866.9225358242
 20
391.5525619484
 30
0.0
  0
VERTEX
  5
A6E
  8
0
  6
CONTINUOUS
 62
     7
 10
865.024391918
 20
391.5149042112
 30
0.0
  0
VERTEX
  5
A6F
  8
0
  6
CONTINUOUS
 62
     7
 10
863.2166137757
 20
391.7140461815
 30
0.0
  0
VERTEX
  5
A70
  8
0
  6
CONTINUOUS
 62
     7
 10
861.422765425
 20
392.2005325983
 30
0.0
  0
VERTEX
  5
A71
  8
0
  6
CONTINUOUS
 62
     7
 10
859.9094756717
 20
392.8721086084
 30
0.0
  0
VERTEX
  5
A72
  8
0
  6
CONTINUOUS
 62
     7
 10
858.4910509014
 20
393.779856149
 30
0.0
  0
VERTEX
  5
A73
  8
0
  6
CONTINUOUS
 62
     7
 10
857.4077551091
 20
394.7320622354
 30
0.0
  0
VERTEX
  5
A74
  8
0
  6
CONTINUOUS
 62
     7
 10
856.4699542546
 20
395.8536668177
 30
0.0
  0
VERTEX
  5
A75
  8
0
  6
CONTINUOUS
 62
     7
 10
855.8020991111
 20
396.9776851552
 30
0.0
  0
SEQEND
  5
A76
  8
0
  6
CONTINUOUS
 62
     7
  0
ARC
  5
3D7
  8
0
  6
CONTINUOUS
 62
     7
 10
855.2375596575
 20
368.8325405551
 30
0.0
 40
4.23069987419782
 50
90.0000173721
 51
265.0731030522
  0
ARC
  5
3D8
  8
0
  6
CONTINUOUS
 62
     7
 10
867.75685929
 20
514.0721471592
 30
0.0
 40
150.0088744745081
 50
265.0734121105
 51
274.9265878895
  0
ARC
  5
3D9
  8
0
  6
CONTINUOUS
 62
     7
 10
880.2761592286
 20
368.8325405683
 30
0.0
 40
4.230699861032462
 50
274.9268928035
 51
89.9999867722
  0
LINE
  5
3DA
  8
0
  6
CONTINUOUS
 62
     7
 10
855.2375583747
 20
373.0632404293
 30
0.0
 11
880.2761602053
 21
373.0632404293
 31
0.0
  0
ARC
  5
3DB
  8
0
  6
CONTINUOUS
 62
     7
 10
867.7568595228
 20
49.9250105957
 30
0.0
 40
309.8926296606444
 50
88.8274409687
 51
91.1725590313
  0
POLYLINE
  5
3DC
  8
0
  6
CONTINUOUS
 62
     7
 66
     1
 10
0.0
 20
0.0
 30
0.0
  0
VERTEX
  5
A77
  8
0
  6
CONTINUOUS
 62
     7
 10
857.8306733468
 20
359.0022849346
 30
0.0
  0
VERTEX
  5
A78
  8
0
  6
CONTINUOUS
 62
     7
 10
857.8425681988
 20
359.1364847924
 30
0.0
  0
VERTEX
  5
A79
  8
0
  6
CONTINUOUS
 62
     7
 10
858.0770193437
 20
359.3308592643
 30
0.0
  0
VERTEX
  5
A7A
  8
0
  6
CONTINUOUS
 62
     7
 10
858.5683171475
 20
359.4934346582
 30
0.0
  0
VERTEX
  5
A7B
  8
0
  6
CONTINUOUS
 62
     7
 10
859.3466914097
 20
359.6225718464
 30
0.0
  0
VERTEX
  5
A7C
  8
0
  6
CONTINUOUS
 62
     7
 10
860.3712659167
 20
359.7098069693
 30
0.0
  0
VERTEX
  5
A7D
  8
0
  6
CONTINUOUS
 62
     7
 10
861.4153218293
 20
359.7527483906
 30
0.0
  0
VERTEX
  5
A7E
  8
0
  6
CONTINUOUS
 62
     7
 10
861.4153446467
 20
359.7527483906
 30
0.0
  0
SEQEND
  5
A7F
  8
0
  6
CONTINUOUS
 62
     7
  0
POLYLINE
  5
3DD
  8
0
  6
CONTINUOUS
 62
     7
 66
     1
 10
0.0
 20
0.0
 30
0.0
  0
VERTEX
  5
A80
  8
0
  6
CONTINUOUS
 62
     7
 10
859.2477598065
 20
354.5701021756
 30
0.0
  0
VERTEX
  5
A81
  8
0
  6
CONTINUOUS
 62
     7
 10
858.3022755408
 20
357.4428895916
 30
0.0
  0
VERTEX
  5
A82
  8
0
  6
CONTINUOUS
 62
     7
 10
857.8306733468
 20
359.0022849346
 30
0.0
  0
SEQEND
  5
A83
  8
0
  6
CONTINUOUS
 62
     7
  0
ARC
  5
3DE
  8
0
  6
CONTINUOUS
 62
     7
 10
859.4455157373
 20
357.3903550044
 30
0.0
 40
2.827177643279478
 50
265.9889891423
 51
270.3819833806
  0
LINE
  5
3DF
  8
0
  6
CONTINUOUS
 62
     7
 10
859.2500983575
 20
354.5632401909
 30
0.0
 11
859.464364017
 21
354.5632401909
 31
0.0
  0
LINE
  5
3E0
  8
0
  6
CONTINUOUS
 62
     7
 10
837.4727842236
 20
354.5632401909
 30
0.0
 11
859.2500983575
 21
354.5632401909
 31
0.0
  0
ARC
  5
3E1
  8
0
  6
CONTINUOUS
 62
     7
 10
837.456750803
 20
362.0871578611
 30
0.0
 40
7.52393475375854
 50
233.0702194654
 51
270.1220967556
  0
POLYLINE
  5
3E2
  8
0
  6
CONTINUOUS
 62
     7
 66
     1
 10
0.0
 20
0.0
 30
0.0
  0
VERTEX
  5
A84
  8
0
  6
CONTINUOUS
 62
     7
 10
831.5290220851
 20
357.468098631
 30
0.0
  0
VERTEX
  5
A85
  8
0
  6
CONTINUOUS
 62
     7
 10
832.1793534631
 20
356.7295821811
 30
0.0
  0
VERTEX
  5
A86
  8
0
  6
CONTINUOUS
 62
     7
 10
832.9361014837
 20
356.0727315451
 30
0.0
  0
SEQEND
  5
A87
  8
0
  6
CONTINUOUS
 62
     7
  0
ARC
  5
3E3
  8
0
  6
CONTINUOUS
 62
     7
 10
837.3886749788
 20
361.9576123883
 30
0.0
 40
7.381819952545587
 50
179.9269952513
 51
217.4583975771
  0
LINE
  5
3E4
  8
0
  6
CONTINUOUS
 62
     7
 10
830.0068610185
 20
391.0632396544
 30
0.0
 11
830.0068610185
 21
361.9670181031
 31
0.0
  0
LINE
  5
3E5
  8
0
  6
CONTINUOUS
 62
     7
 10
905.5068575615
 20
361.9670181031
 30
0.0
 11
905.5068575615
 21
391.0632396544
 31
0.0
  0
ARC
  5
3E6
  8
0
  6
CONTINUOUS
 62
     7
 10
898.1248421791
 20
361.9576578489
 30
0.0
 40
7.382021316714241
 50
322.6724965642
 51
0.0726499127
  0
POLYLINE
  5
3E7
  8
0
  6
CONTINUOUS
 62
     7
 66
     1
 10
0.0
 20
0.0
 30
0.0
  0
VERTEX
  5
A88
  8
0
  6
CONTINUOUS
 62
     7
 10
902.5776170963
 20
356.0727315451
 30
0.0
  0
VERTEX
  5
A89
  8
0
  6
CONTINUOUS
 62
     7
 10
903.3273541206
 20
356.7226158882
 30
0.0
  0
VERTEX
  5
A8A
  8
0
  6
CONTINUOUS
 62
     7
 10
903.9948963398
 20
357.4814202691
 30
0.0
  0
SEQEND
  5
A8B
  8
0
  6
CONTINUOUS
 62
     7
  0
ARC
  5
3E8
  8
0
  6
CONTINUOUS
 62
     7
 10
898.0575595773
 20
362.0853792419
 30
0.0
 40
7.522157423259581
 50
269.8733666805
 51
306.9343170985
  0
LINE
  5
3E9
  8
0
  6
CONTINUOUS
 62
     7
 10
876.2636202225
 20
354.5632401909
 30
0.0
 11
898.0409343565
 21
354.5632401909
 31
0.0
  0
LINE
  5
3EA
  8
0
  6
CONTINUOUS
 62
     7
 10
876.0493545631
 20
354.5632401909
 30
0.0
 11
876.2636202225
 21
354.5632401909
 31
0.0
  0
ARC
  5
3EB
  8
0
  6
CONTINUOUS
 62
     7
 10
876.0673528136
 20
357.4171868731
 30
0.0
 40
2.854003434178348
 50
269.6386722528
 51
273.9903552243
  0
POLYLINE
  5
3EC
  8
0
  6
CONTINUOUS
 62
     7
 66
     1
 10
0.0
 20
0.0
 30
0.0
  0
VERTEX
  5
A8C
  8
0
  6
CONTINUOUS
 62
     7
 10
877.6830452332
 20
359.0022849346
 30
0.0
  0
VERTEX
  5
A8D
  8
0
  6
CONTINUOUS
 62
     7
 10
877.2114458332
 20
357.4429007675
 30
0.0
  0
VERTEX
  5
A8E
  8
0
  6
CONTINUOUS
 62
     7
 10
876.2659587735
 20
354.5701021756
 30
0.0
  0
SEQEND
  5
A8F
  8
0
  6
CONTINUOUS
 62
     7
  0
POLYLINE
  5
3ED
  8
0
  6
CONTINUOUS
 62
     7
 66
     1
 10
0.0
 20
0.0
 30
0.0
  0
VERTEX
  5
A90
  8
0
  6
CONTINUOUS
 62
     7
 10
874.098374399
 20
359.7527483906
 30
0.0
  0
VERTEX
  5
A91
  8
0
  6
CONTINUOUS
 62
     7
 10
874.0983972164
 20
359.7527483906
 30
0.0
  0
VERTEX
  5
A92
  8
0
  6
CONTINUOUS
 62
     7
 10
875.159882831
 20
359.7087862397
 30
0.0
  0
VERTEX
  5
A93
  8
0
  6
CONTINUOUS
 62
     7
 10
876.1561120698
 20
359.6239129509
 30
0.0
  0
VERTEX
  5
A94
  8
0
  6
CONTINUOUS
 62
     7
 10
876.9196280116
 20
359.4993653203
 30
0.0
  0
VERTEX
  5
A95
  8
0
  6
CONTINUOUS
 62
     7
 10
877.4276803085
 20
359.3352141286
 30
0.0
  0
VERTEX
  5
A96
  8
0
  6
CONTINUOUS
 62
     7
 10
877.6703885594
 20
359.1380270625
 30
0.0
  0
VERTEX
  5
A97
  8
0
  6
CONTINUOUS
 62
     7
 10
877.6889963845
 20
359.0300234462
 30
0.0
  0
VERTEX
  5
A98
  8
0
  6
CONTINUOUS
 62
     7
 10
877.6830452332
 20
359.0022849346
 30
0.0
  0
SEQEND
  5
A99
  8
0
  6
CONTINUOUS
 62
     7
  0
ARC
  5
3EE
  8
0
  6
CONTINUOUS
 62
     7
 10
861.2568582144
 20
385.5632410914
 30
0.0
 40
2.499998536957092
 50
89.9999784223
 51
180.0000322498
  0
LINE
  5
3EF
  8
0
  6
CONTINUOUS
 62
     7
 10
858.7568596774
 20
380.8552066292
 30
0.0
 11
858.7568596774
 21
385.5632396842
 31
0.0
  0
ARC
  5
3F0
  8
0
  6
CONTINUOUS
 62
     7
 10
861.2568577903
 20
380.8552051639
 30
0.0
 40
2.499998112880778
 50
179.9999664195
 51
264.8562636061
  0
ARC
  5
3F1
  8
0
  6
CONTINUOUS
 62
     7
 10
867.75685929
 20
453.0632935391
 30
0.0
 40
75.00005360454828
 50
264.8562340474
 51
275.1437659526
  0
ARC
  5
3F2
  8
0
  6
CONTINUOUS
 62
     7
 10
874.2568606447
 20
380.8552052965
 30
0.0
 40
2.499998257880307
 50
275.1437394314
 51
0.0000305431
  0
LINE
  5
3F3
  8
0
  6
CONTINUOUS
 62
     7
 10
876.7568589026
 20
385.5632396842
 30
0.0
 11
876.7568589026
 21
380.8552066292
 31
0.0
  0
ARC
  5
3F4
  8
0
  6
CONTINUOUS
 62
     7
 10
874.2568602441
 20
385.5632409698
 30
0.0
 40
2.499998658513298
 50
359.999970536
 51
90.0000187918
  0
LINE
  5
3F5
  8
0
  6
CONTINUOUS
 62
     7
 10
861.2568591559
 20
388.0632396284
 30
0.0
 11
874.2568594241
 21
388.0632396284
 31
0.0
  0
ARC
  5
3F6
  8
0
  6
CONTINUOUS
 62
     7
 10
867.75685929
 20
403.0632396544
 30
0.0
 40
11.25000000000009
 50
203.7562396615
 51
336.2437664237
  0
ARC
  5
3F7
  8
0
  6
CONTINUOUS
 62
     7
 10
877.8564043414
 20
356.5353044195
 30
0.0
 40
2.47306414035161
 50
94.0196684763
 51
159.8566362897
  0
POLYLINE
  5
3F8
  8
0
  6
CONTINUOUS
 62
     7
 66
     1
 10
0.0
 20
0.0
 30
0.0
  0
VERTEX
  5
A9A
  8
0
  6
CONTINUOUS
 62
     7
 10
875.5346079195
 20
357.3869543577
 30
0.0
  0
VERTEX
  5
A9B
  8
0
  6
CONTINUOUS
 62
     7
 10
875.5431751558
 20
357.414920112
 30
0.0
  0
VERTEX
  5
A9C
  8
0
  6
CONTINUOUS
 62
     7
 10
875.544001239
 20
357.5237283911
 30
0.0
  0
VERTEX
  5
A9D
  8
0
  6
CONTINUOUS
 62
     7
 10
875.3869904974
 20
357.7193396593
 30
0.0
  0
VERTEX
  5
A9E
  8
0
  6
CONTINUOUS
 62
     7
 10
875.0062998222
 20
357.8861581589
 30
0.0
  0
VERTEX
  5
A9F
  8
0
  6
CONTINUOUS
 62
     7
 10
874.432540855
 20
358.0084706153
 30
0.0
  0
VERTEX
  5
AA0
  8
0
  6
CONTINUOUS
 62
     7
 10
873.6470727088
 20
358.092431208
 30
0.0
  0
VERTEX
  5
AA1
  8
0
  6
CONTINUOUS
 62
     7
 10
872.7378532128
 20
358.1362145449
 30
0.0
  0
VERTEX
  5
AA2
  8
0
  6
CONTINUOUS
 62
     7
 10
871.6735214764
 20
358.1677491273
 30
0.0
  0
VERTEX
  5
AA3
  8
0
  6
CONTINUOUS
 62
     7
 10
870.4887359706
 20
358.1940645779
 30
0.0
  0
VERTEX
  5
AA4
  8
0
  6
CONTINUOUS
 62
     7
 10
869.1930486891
 20
358.2099119629
 30
0.0
  0
VERTEX
  5
AA5
  8
0
  6
CONTINUOUS
 62
     7
 10
867.8777091916
 20
358.2146095539
 30
0.0
  0
VERTEX
  5
AA6
  8
0
  6
CONTINUOUS
 62
     7
 10
866.5210550023
 20
358.2112642433
 30
0.0
  0
VERTEX
  5
AA7
  8
0
  6
CONTINUOUS
 62
     7
 10
865.2332244744
 20
358.1975067462
 30
0.0
  0
VERTEX
  5
AA8
  8
0
  6
CONTINUOUS
 62
     7
 10
863.9814137785
 20
358.1714595164
 30
0.0
  0
VERTEX
  5
AA9
  8
0
  6
CONTINUOUS
 62
     7
 10
862.8759066412
 20
358.1393437887
 30
0.0
  0
VERTEX
  5
AAA
  8
0
  6
CONTINUOUS
 62
     7
 10
861.8802878843
 20
358.0934109594
 30
0.0
  0
VERTEX
  5
AAB
  8
0
  6
CONTINUOUS
 62
     7
 10
861.0947419727
 20
358.0105195249
 30
0.0
  0
VERTEX
  5
AAC
  8
0
  6
CONTINUOUS
 62
     7
 10
860.48798159
 20
357.8802461232
 30
0.0
  0
VERTEX
  5
AAD
  8
0
  6
CONTINUOUS
 62
     7
 10
860.1281055087
 20
357.7202821578
 30
0.0
  0
VERTEX
  5
AAE
  8
0
  6
CONTINUOUS
 62
     7
 10
859.9693424837
 20
357.5221786703
 30
0.0
  0
VERTEX
  5
AAF
  8
0
  6
CONTINUOUS
 62
     7
 10
859.9791111262
 20
357.3869543577
 30
0.0
  0
SEQEND
  5
AB0
  8
0
  6
CONTINUOUS
 62
     7
  0
ARC
  5
3F9
  8
0
  6
CONTINUOUS
 62
     7
 10
857.6573148029
 20
356.5353045008
 30
0.0
 40
2.47306401971618
 50
20.1433627299
 51
85.9803444342
  0
LINE
  5
3FA
  8
0
  6
CONTINUOUS
 62
     7
 10
875.5346079195
 20
357.3869543577
 30
0.0
 11
874.7463444086
 21
355.2212195898
 31
0.0
  0
LINE
  5
3FB
  8
0
  6
CONTINUOUS
 62
     7
 10
860.7673741715
 20
355.2212195898
 30
0.0
 11
874.7463444086
 21
355.2212195898
 31
0.0
  0
LINE
  5
3FC
  8
0
  6
CONTINUOUS
 62
     7
 10
859.9791111262
 20
357.3869543577
 30
0.0
 11
860.7673741715
 21
355.2212195898
 31
0.0
  0
ARC
  5
3FD
  8
0
  6
CONTINUOUS
 62
     7
 10
873.8066517518
 20
355.5632396544
 30
0.0
 40
1.000000000000077
 50
270.0
 51
340.0
  0
LINE
  5
3FE
  8
0
  6
CONTINUOUS
 62
     7
 10
873.8066515723
 20
354.5632401909
 30
0.0
 11
861.7070670077
 21
354.5632401909
 31
0.0
  0
ARC
  5
3FF
  8
0
  6
CONTINUOUS
 62
     7
 10
861.7070668282
 20
355.5632396544
 30
0.0
 40
1.000000000000077
 50
200.0
 51
270.0
  0
POLYLINE
  5
400
  8
0
  6
CONTINUOUS
 62
     7
 66
     1
 10
0.0
 20
0.0
 30
0.0
  0
VERTEX
  5
AB1
  8
0
  6
CONTINUOUS
 62
     7
 10
859.2477598065
 20
354.5701021756
 30
0.0
  0
VERTEX
  5
AB2
  8
0
  6
CONTINUOUS
 62
     7
 10
859.333041946
 20
354.5705194081
 30
0.0
  0
VERTEX
  5
AB3
  8
0
  6
CONTINUOUS
 62
     7
 10
859.4386697585
 20
354.5727285053
 30
0.0
  0
VERTEX
  5
AB4
  8
0
  6
CONTINUOUS
 62
     7
 10
859.561742174
 20
354.5778545047
 30
0.0
  0
VERTEX
  5
AB5
  8
0
  6
CONTINUOUS
 62
     7
 10
859.7128678882
 20
354.5883188452
 30
0.0
  0
VERTEX
  5
AB6
  8
0
  6
CONTINUOUS
 62
     7
 10
860.0439968357
 20
354.6312155629
 30
0.0
  0
VERTEX
  5
AB7
  8
0
  6
CONTINUOUS
 62
     7
 10
860.2882431658
 20
354.6878958548
 30
0.0
  0
VERTEX
  5
AB8
  8
0
  6
CONTINUOUS
 62
     7
 10
860.4513764219
 20
354.74538826
 30
0.0
  0
VERTEX
  5
AB9
  8
0
  6
CONTINUOUS
 62
     7
 10
860.6533220807
 20
354.8621723856
 30
0.0
  0
VERTEX
  5
ABA
  8
0
  6
CONTINUOUS
 62
     7
 10
860.754516332
 20
354.9803870226
 30
0.0
  0
VERTEX
  5
ABB
  8
0
  6
CONTINUOUS
 62
     7
 10
860.7673741715
 20
355.2212195898
 30
0.0
  0
SEQEND
  5
ABC
  8
0
  6
CONTINUOUS
 62
     7
  0
POLYLINE
  5
401
  8
0
  6
CONTINUOUS
 62
     7
 66
     1
 10
0.0
 20
0.0
 30
0.0
  0
VERTEX
  5
ABD
  8
0
  6
CONTINUOUS
 62
     7
 10
874.7463444086
 20
355.2212195898
 30
0.0
  0
VERTEX
  5
ABE
  8
0
  6
CONTINUOUS
 62
     7
 10
874.7391951108
 20
355.1995905544
 30
0.0
  0
VERTEX
  5
ABF
  8
0
  6
CONTINUOUS
 62
     7
 10
874.7737639421
 20
354.9559789206
 30
0.0
  0
VERTEX
  5
AC0
  8
0
  6
CONTINUOUS
 62
     7
 10
874.8947618367
 20
354.8360804523
 30
0.0
  0
VERTEX
  5
AC1
  8
0
  6
CONTINUOUS
 62
     7
 10
875.1342095272
 20
354.7174597586
 30
0.0
  0
VERTEX
  5
AC2
  8
0
  6
CONTINUOUS
 62
     7
 10
875.3333509737
 20
354.6594532634
 30
0.0
  0
VERTEX
  5
AC3
  8
0
  6
CONTINUOUS
 62
     7
 10
875.6647360349
 20
354.6022439803
 30
0.0
  0
VERTEX
  5
AC4
  8
0
  6
CONTINUOUS
 62
     7
 10
875.9361988703
 20
354.5787224973
 30
0.0
  0
VERTEX
  5
AC5
  8
0
  6
CONTINUOUS
 62
     7
 10
876.0206959048
 20
354.5746395792
 30
0.0
  0
VERTEX
  5
AC6
  8
0
  6
CONTINUOUS
 62
     7
 10
876.1118826294
 20
354.571737578
 30
0.0
  0
VERTEX
  5
AC7
  8
0
  6
CONTINUOUS
 62
     7
 10
876.1245076382
 20
354.571454456
 30
0.0
  0
VERTEX
  5
AC8
  8
0
  6
CONTINUOUS
 62
     7
 10
876.2194550434
 20
354.5701804067
 30
0.0
  0
VERTEX
  5
AC9
  8
0
  6
CONTINUOUS
 62
     7
 10
876.2659587735
 20
354.5701021756
 30
0.0
  0
SEQEND
  5
ACA
  8
0
  6
CONTINUOUS
 62
     7
  0
LINE
  5
402
  8
0
  6
CONTINUOUS
 62
     7
 10
876.0493545631
 20
354.5632401909
 30
0.0
 11
873.8066515723
 21
354.5632401909
 31
0.0
  0
LINE
  5
403
  8
0
  6
CONTINUOUS
 62
     7
 10
861.7070670077
 20
354.5632401909
 30
0.0
 11
859.464364017
 21
354.5632401909
 31
0.0
  0
ARC
  5
404
  8
0
  6
CONTINUOUS
 62
     7
 10
884.9015961321
 20
401.3238030347
 30
0.0
 40
22.5
 50
0.0
 51
90.0
  0
LINE
  5
405
  8
0
  6
CONTINUOUS
 62
     7
 10
907.4015960866
 20
360.8857395555
 30
0.0
 11
907.4015960866
 21
401.3238029982
 31
0.0
  0
ARC
  5
406
  8
0
  6
CONTINUOUS
 62
     7
 10
899.9015961321
 20
360.8857396598
 30
0.0
 40
7.5
 50
269.9999999999
 51
0.0
  0
LINE
  5
407
  8
0
  6
CONTINUOUS
 62
     7
 10
835.6121227914
 20
353.3857392575
 30
0.0
 11
899.9015957886
 21
353.3857392575
 31
0.0
  0
ARC
  5
408
  8
0
  6
CONTINUOUS
 62
     7
 10
835.6121224479
 20
360.8857396598
 30
0.0
 40
7.5
 50
179.9999999966
 51
270.000000002
  0
LINE
  5
409
  8
0
  6
CONTINUOUS
 62
     7
 10
828.1121224934
 20
401.3238029982
 30
0.0
 11
828.1121224934
 21
360.8857395555
 31
0.0
  0
ARC
  5
40A
  8
0
  6
CONTINUOUS
 62
     7
 10
850.6121224479
 20
401.3238030347
 30
0.0
 40
22.5
 50
90.0
 51
179.9999999988
  0
LINE
  5
40B
  8
0
  6
CONTINUOUS
 62
     7
 10
884.9015970552
 20
423.8238038923
 30
0.0
 11
850.6121215248
 21
423.8238038923
 31
0.0
  0
INSERT
  5
413
  8
0
  6
CONTINUOUS
 62
     7
  2
SW_CENTERMARKSYMBOL_11
 10
861.7070668282
 20
355.5632396544
 30
0.0
  0
INSERT
  5
41B
  8
0
  6
CONTINUOUS
 62
     7
  2
SW_CENTERMARKSYMBOL_12
 10
873.8066517518
 20
355.5632396544
 30
0.0
  0
INSERT
  5
423
  8
0
  6
CONTINUOUS
 62
     7
  2
SW_CENTERMARKSYMBOL_13
 10
867.75685929
 20
403.0632396544
 30
0.0
  0
INSERT
  5
42B
  8
0
  6
CONTINUOUS
 62
     7
  2
SW_CENTERMARKSYMBOL_14
 10
874.25685929
 20
385.5632396544
 30
0.0
  0
INSERT
  5
433
  8
0
  6
CONTINUOUS
 62
     7
  2
SW_CENTERMARKSYMBOL_15
 10
874.25685929
 20
380.8552068603
 30
0.0
  0
INSERT
  5
43B
  8
0
  6
CONTINUOUS
 62
     7
  2
SW_CENTERMARKSYMBOL_16
 10
861.25685929
 20
380.8552068603
 30
0.0
  0
INSERT
  5
443
  8
0
  6
CONTINUOUS
 62
     7
  2
SW_CENTERMARKSYMBOL_17
 10
861.25685929
 20
385.5632396544
 30
0.0
  0
INSERT
  5
44B
  8
0
  6
CONTINUOUS
 62
     7
  2
SW_CENTERMARKSYMBOL_18
 10
880.2761597793
 20
368.8325401437
 30
0.0
  0
INSERT
  5
453
  8
0
  6
CONTINUOUS
 62
     7
  2
SW_CENTERMARKSYMBOL_19
 10
855.2375588008
 20
368.8325401437
 30
0.0
  0
INSERT
  5
45F
  8
0
  6
CONTINUOUS
 62
     7
  2
SW_CENTERMARKSYMBOL_20
 10
867.75685929
 20
403.0632396544
 30
0.0
  0
ENDSEC
  0
EOF
